ISO-10303-21;
HEADER;
FILE_DESCRIPTION(('STEP AP214'),'1');
FILE_NAME(' ','  ',('TraceParts'),('TraceParts S.A.'),'XStep 1.0',' ',' ');
FILE_SCHEMA(('automotive_design'));
ENDSEC;
DATA;
#1=MECHANICAL_DESIGN_GEOMETRIC_PRESENTATION_REPRESENTATION(' ',(#10,#11,#12,#13,#14,#15,#16,#17,#18,#19,#20,#21,#22,#23,#24,#25,#26,#27,#28,#29,#30,#31,#32,#33,#34,#35,#36,#37,#38,#39,#40,#41,#42,#43,#44,#45,#46,#47,#48,#49,#50,#51,#52,#53),#6);
#2=PRODUCT_DEFINITION_CONTEXT('',#54,'design');
#3=APPLICATION_PROTOCOL_DEFINITION('INTERNATIONAL STANDARD','automotive_design',1994,#54);
#4=PRODUCT_CATEGORY_RELATIONSHIP('NONE','NONE',#55,#56);
#5=SHAPE_DEFINITION_REPRESENTATION(#57,#58);
#6= (GEOMETRIC_REPRESENTATION_CONTEXT(3)GLOBAL_UNCERTAINTY_ASSIGNED_CONTEXT((#61))GLOBAL_UNIT_ASSIGNED_CONTEXT((#63,#64,#65))REPRESENTATION_CONTEXT('NONE','WORKSPACE'));
#10=STYLED_ITEM('',(#67),#68);
#11=STYLED_ITEM('',(#69),#70);
#12=STYLED_ITEM('',(#71),#72);
#13=STYLED_ITEM('',(#73),#74);
#14=STYLED_ITEM('',(#75),#76);
#15=STYLED_ITEM('',(#77),#78);
#16=STYLED_ITEM('',(#79),#80);
#17=STYLED_ITEM('',(#81),#82);
#18=STYLED_ITEM('',(#83),#84);
#19=STYLED_ITEM('',(#85),#86);
#20=STYLED_ITEM('',(#87),#88);
#21=STYLED_ITEM('',(#89),#90);
#22=STYLED_ITEM('',(#91),#92);
#23=STYLED_ITEM('',(#93),#94);
#24=STYLED_ITEM('',(#95),#96);
#25=STYLED_ITEM('',(#97),#98);
#26=STYLED_ITEM('',(#99),#100);
#27=STYLED_ITEM('',(#101),#102);
#28=STYLED_ITEM('',(#103),#104);
#29=STYLED_ITEM('',(#105),#106);
#30=STYLED_ITEM('',(#107),#108);
#31=STYLED_ITEM('',(#109),#110);
#32=STYLED_ITEM('',(#111),#112);
#33=STYLED_ITEM('',(#113),#114);
#34=STYLED_ITEM('',(#115),#116);
#35=STYLED_ITEM('',(#117),#118);
#36=STYLED_ITEM('',(#119),#120);
#37=STYLED_ITEM('',(#121),#122);
#38=STYLED_ITEM('',(#123),#124);
#39=STYLED_ITEM('',(#125),#126);
#40=STYLED_ITEM('',(#127),#128);
#41=STYLED_ITEM('',(#129),#130);
#42=STYLED_ITEM('',(#131),#132);
#43=STYLED_ITEM('',(#133),#134);
#44=STYLED_ITEM('',(#135),#136);
#45=STYLED_ITEM('',(#137),#138);
#46=STYLED_ITEM('',(#139),#140);
#47=STYLED_ITEM('',(#141),#142);
#48=STYLED_ITEM('',(#143),#144);
#49=STYLED_ITEM('',(#145),#146);
#50=STYLED_ITEM('',(#147),#148);
#51=STYLED_ITEM('',(#149),#150);
#52=STYLED_ITEM('',(#151),#152);
#53=STYLED_ITEM('',(#153),#154);
#54=APPLICATION_CONTEXT(' ');
#55=PRODUCT_CATEGORY('part','NONE');
#56=PRODUCT_RELATED_PRODUCT_CATEGORY('detail',' ',(#155));
#57=PRODUCT_DEFINITION_SHAPE('NONE','NONE',#156);
#58=ADVANCED_BREP_SHAPE_REPRESENTATION('1',(#124,#157),#6);
#61=UNCERTAINTY_MEASURE_WITH_UNIT(LENGTH_MEASURE(1.0E-006),#63,'','');
#63= (CONVERSION_BASED_UNIT('MILLIMETRE',#160)LENGTH_UNIT()NAMED_UNIT(#163));
#64= (NAMED_UNIT(#165)PLANE_ANGLE_UNIT()SI_UNIT($,.RADIAN.));
#65= (NAMED_UNIT(#165)SOLID_ANGLE_UNIT()SI_UNIT($,.STERADIAN.));
#67=PRESENTATION_STYLE_ASSIGNMENT((#171));
#68=EDGE_CURVE('',#102,#142,#172,.T.);
#69=PRESENTATION_STYLE_ASSIGNMENT((#173));
#70=EDGE_CURVE('',#142,#102,#174,.T.);
#71=PRESENTATION_STYLE_ASSIGNMENT((#175));
#72=ADVANCED_FACE('',(#176),#177,.T.);
#73=PRESENTATION_STYLE_ASSIGNMENT((#178));
#74=ADVANCED_FACE('',(#179),#180,.T.);
#75=PRESENTATION_STYLE_ASSIGNMENT((#181));
#76=EDGE_CURVE('',#140,#118,#182,.T.);
#77=PRESENTATION_STYLE_ASSIGNMENT((#183));
#78=ADVANCED_FACE('',(#184,#185),#186,.T.);
#79=PRESENTATION_STYLE_ASSIGNMENT((#187));
#80=VERTEX_POINT('',#188);
#81=PRESENTATION_STYLE_ASSIGNMENT((#189));
#82=EDGE_CURVE('',#144,#114,#190,.T.);
#83=PRESENTATION_STYLE_ASSIGNMENT((#191));
#84=EDGE_CURVE('',#146,#134,#192,.T.);
#85=PRESENTATION_STYLE_ASSIGNMENT((#193));
#86=EDGE_CURVE('',#80,#92,#194,.T.);
#87=PRESENTATION_STYLE_ASSIGNMENT((#195));
#88=ADVANCED_FACE('',(#196),#197,.T.);
#89=PRESENTATION_STYLE_ASSIGNMENT((#198));
#90=EDGE_CURVE('',#114,#144,#199,.T.);
#91=PRESENTATION_STYLE_ASSIGNMENT((#200));
#92=VERTEX_POINT('',#201);
#93=PRESENTATION_STYLE_ASSIGNMENT((#202));
#94=EDGE_CURVE('',#122,#152,#203,.T.);
#95=PRESENTATION_STYLE_ASSIGNMENT((#204));
#96=ADVANCED_FACE('',(#205),#206,.T.);
#97=PRESENTATION_STYLE_ASSIGNMENT((#207));
#98=ADVANCED_FACE('',(#208),#209,.T.);
#99=PRESENTATION_STYLE_ASSIGNMENT((#210));
#100=ADVANCED_FACE('',(#211),#212,.T.);
#101=PRESENTATION_STYLE_ASSIGNMENT((#213));
#102=VERTEX_POINT('',#214);
#103=PRESENTATION_STYLE_ASSIGNMENT((#215));
#104=EDGE_CURVE('',#118,#140,#216,.T.);
#105=PRESENTATION_STYLE_ASSIGNMENT((#217));
#106=EDGE_CURVE('',#144,#134,#218,.T.);
#107=PRESENTATION_STYLE_ASSIGNMENT((#219));
#108=EDGE_CURVE('',#114,#122,#220,.T.);
#109=PRESENTATION_STYLE_ASSIGNMENT((#221));
#110=EDGE_CURVE('',#140,#80,#222,.T.);
#111=PRESENTATION_STYLE_ASSIGNMENT((#223));
#112=EDGE_CURVE('',#152,#122,#224,.T.);
#113=PRESENTATION_STYLE_ASSIGNMENT((#225));
#114=VERTEX_POINT('',#226);
#115=PRESENTATION_STYLE_ASSIGNMENT((#227));
#116=ADVANCED_FACE('',(#228),#229,.T.);
#117=PRESENTATION_STYLE_ASSIGNMENT((#230));
#118=VERTEX_POINT('',#231);
#119=PRESENTATION_STYLE_ASSIGNMENT((#232));
#120=EDGE_CURVE('',#118,#102,#233,.T.);
#121=PRESENTATION_STYLE_ASSIGNMENT((#234));
#122=VERTEX_POINT('',#235);
#123=PRESENTATION_STYLE_ASSIGNMENT((#236));
#124=MANIFOLD_SOLID_BREP('1',#237);
#125=PRESENTATION_STYLE_ASSIGNMENT((#238));
#126=ADVANCED_FACE('',(#239),#240,.T.);
#127=PRESENTATION_STYLE_ASSIGNMENT((#241));
#128=ADVANCED_FACE('',(#242),#243,.T.);
#129=PRESENTATION_STYLE_ASSIGNMENT((#244));
#130=ADVANCED_FACE('',(#245),#246,.T.);
#131=PRESENTATION_STYLE_ASSIGNMENT((#247));
#132=EDGE_CURVE('',#92,#80,#248,.T.);
#133=PRESENTATION_STYLE_ASSIGNMENT((#249));
#134=VERTEX_POINT('',#250);
#135=PRESENTATION_STYLE_ASSIGNMENT((#251));
#136=EDGE_CURVE('',#142,#140,#252,.T.);
#137=PRESENTATION_STYLE_ASSIGNMENT((#253));
#138=EDGE_CURVE('',#152,#144,#254,.T.);
#139=PRESENTATION_STYLE_ASSIGNMENT((#255));
#140=VERTEX_POINT('',#256);
#141=PRESENTATION_STYLE_ASSIGNMENT((#257));
#142=VERTEX_POINT('',#258);
#143=PRESENTATION_STYLE_ASSIGNMENT((#259));
#144=VERTEX_POINT('',#260);
#145=PRESENTATION_STYLE_ASSIGNMENT((#261));
#146=VERTEX_POINT('',#262);
#147=PRESENTATION_STYLE_ASSIGNMENT((#263));
#148=EDGE_CURVE('',#146,#114,#264,.T.);
#149=PRESENTATION_STYLE_ASSIGNMENT((#265));
#150=EDGE_CURVE('',#134,#146,#266,.T.);
#151=PRESENTATION_STYLE_ASSIGNMENT((#267));
#152=VERTEX_POINT('',#268);
#153=PRESENTATION_STYLE_ASSIGNMENT((#269));
#154=EDGE_CURVE('',#92,#118,#270,.T.);
#155=PRODUCT('1','1','PART-1-DESC',(#271));
#156=PRODUCT_DEFINITION('NONE','NONE',#272,#2);
#157=AXIS2_PLACEMENT_3D('',#273,#274,#275);
#160=LENGTH_MEASURE_WITH_UNIT(LENGTH_MEASURE(1.0),#276);
#163=DIMENSIONAL_EXPONENTS(1.0,0.0,0.0,0.0,0.0,0.0,0.0);
#165=DIMENSIONAL_EXPONENTS(0.0,0.0,0.0,0.0,0.0,0.0,0.0);
#171=CURVE_STYLE('',#277,POSITIVE_LENGTH_MEASURE(1.0E-006),#278);
#172=CIRCLE('',#279,4.39230484541326);
#173=CURVE_STYLE('',#280,POSITIVE_LENGTH_MEASURE(1.0E-006),#281);
#174=CIRCLE('',#282,4.39230484541326);
#175=SURFACE_STYLE_USAGE(.BOTH.,#283);
#176=FACE_OUTER_BOUND('',#284,.T.);
#177=CONICAL_SURFACE('',#285,2.78564064605511,0.26179938779914);
#178=SURFACE_STYLE_USAGE(.BOTH.,#286);
#179=FACE_OUTER_BOUND('',#287,.T.);
#180=PLANE('',#288);
#181=CURVE_STYLE('',#289,POSITIVE_LENGTH_MEASURE(1.0E-006),#290);
#182=CIRCLE('',#291,6.0);
#183=SURFACE_STYLE_USAGE(.BOTH.,#292);
#184=FACE_OUTER_BOUND('',#293,.T.);
#185=FACE_BOUND('',#294,.T.);
#186=PLANE('',#295);
#187=POINT_STYLE(' ',#296,POSITIVE_LENGTH_MEASURE(1.0E-006),#297);
#188=CARTESIAN_POINT('',(-1.82707480635585E-012,6.00000000000003,-2.8421709430404E-014));
#189=CURVE_STYLE('',#298,POSITIVE_LENGTH_MEASURE(1.0E-006),#299);
#190=CIRCLE('',#300,3.0);
#191=CURVE_STYLE('',#301,POSITIVE_LENGTH_MEASURE(1.0E-006),#302);
#192=CIRCLE('',#303,3.0);
#193=CURVE_STYLE('',#304,POSITIVE_LENGTH_MEASURE(1.0E-006),#305);
#194=CIRCLE('',#306,6.0);
#195=SURFACE_STYLE_USAGE(.BOTH.,#307);
#196=FACE_OUTER_BOUND('',#308,.T.);
#197=CYLINDRICAL_SURFACE('',#309,6.0);
#198=CURVE_STYLE('',#310,POSITIVE_LENGTH_MEASURE(1.0E-006),#311);
#199=CIRCLE('',#312,3.0);
#200=POINT_STYLE(' ',#313,POSITIVE_LENGTH_MEASURE(1.0E-006),#314);
#201=CARTESIAN_POINT('',(6.58483328039692E-015,-5.99999999999997,-2.8421709430404E-014));
#202=CURVE_STYLE('',#315,POSITIVE_LENGTH_MEASURE(1.0E-006),#316);
#203=CIRCLE('',#317,2.57128129211023);
#204=SURFACE_STYLE_USAGE(.BOTH.,#318);
#205=FACE_OUTER_BOUND('',#319,.T.);
#206=CYLINDRICAL_SURFACE('',#320,3.0);
#207=SURFACE_STYLE_USAGE(.BOTH.,#321);
#208=FACE_OUTER_BOUND('',#322,.T.);
#209=PLANE('',#323);
#210=SURFACE_STYLE_USAGE(.BOTH.,#324);
#211=FACE_OUTER_BOUND('',#325,.T.);
#212=CYLINDRICAL_SURFACE('',#326,6.0);
#213=POINT_STYLE(' ',#327,POSITIVE_LENGTH_MEASURE(1.0E-006),#328);
#214=CARTESIAN_POINT('',(7.98229805403451E-015,-4.39230484541324,18.0));
#215=CURVE_STYLE('',#329,POSITIVE_LENGTH_MEASURE(1.0E-006),#330);
#216=CIRCLE('',#331,6.0);
#217=CURVE_STYLE('',#332,POSITIVE_LENGTH_MEASURE(1.0E-006),#333);
#218=LINE('',#334,#335);
#219=CURVE_STYLE('',#336,POSITIVE_LENGTH_MEASURE(1.0E-006),#337);
#220=LINE('',#338,#339);
#221=CURVE_STYLE('',#340,POSITIVE_LENGTH_MEASURE(1.0E-006),#341);
#222=LINE('',#342,#343);
#223=CURVE_STYLE('',#344,POSITIVE_LENGTH_MEASURE(1.0E-006),#345);
#224=CIRCLE('',#346,2.57128129211023);
#225=POINT_STYLE(' ',#347,POSITIVE_LENGTH_MEASURE(1.0E-006),#348);
#226=CARTESIAN_POINT('',(-9.09969450108115E-013,3.00000000000003,-7.40000000000006));
#227=SURFACE_STYLE_USAGE(.BOTH.,#349);
#228=FACE_OUTER_BOUND('',#350,.T.);
#229=CONICAL_SURFACE('',#351,5.19615242270663,0.261799387799149);
#230=POINT_STYLE(' ',#352,POSITIVE_LENGTH_MEASURE(1.0E-006),#353);
#231=CARTESIAN_POINT('',(7.31959709269035E-015,-5.99999999999997,12.0));
#232=CURVE_STYLE('',#354,POSITIVE_LENGTH_MEASURE(1.0E-006),#355);
#233=LINE('',#356,#357);
#234=POINT_STYLE(' ',#358,POSITIVE_LENGTH_MEASURE(1.0E-006),#359);
#235=CARTESIAN_POINT('',(-7.78909375665009E-013,2.57128129211026,-9.00000000000003));
#236=SURFACE_STYLE_USAGE(.BOTH.,#360);
#237=CLOSED_SHELL('',(#126,#88,#130,#72,#74,#128,#96,#78,#100,#116,#98));
#238=SURFACE_STYLE_USAGE(.BOTH.,#361);
#239=FACE_OUTER_BOUND('',#362,.T.);
#240=CONICAL_SURFACE('',#363,5.19615242270663,0.261799387799149);
#241=SURFACE_STYLE_USAGE(.BOTH.,#364);
#242=FACE_OUTER_BOUND('',#365,.T.);
#243=CONICAL_SURFACE('',#366,2.78564064605511,0.26179938779914);
#244=SURFACE_STYLE_USAGE(.BOTH.,#367);
#245=FACE_OUTER_BOUND('',#368,.T.);
#246=CYLINDRICAL_SURFACE('',#369,3.0);
#247=CURVE_STYLE('',#370,POSITIVE_LENGTH_MEASURE(1.0E-006),#371);
#248=CIRCLE('',#372,6.0);
#249=POINT_STYLE(' ',#373,POSITIVE_LENGTH_MEASURE(1.0E-006),#374);
#250=CARTESIAN_POINT('',(7.13590613961699E-015,-2.99999999999997,-2.8421709430404E-014));
#251=CURVE_STYLE('',#375,POSITIVE_LENGTH_MEASURE(1.0E-006),#376);
#252=LINE('',#377,#378);
#253=CURVE_STYLE('',#379,POSITIVE_LENGTH_MEASURE(1.0E-006),#380);
#254=LINE('',#381,#382);
#255=POINT_STYLE(' ',#383,POSITIVE_LENGTH_MEASURE(1.0E-006),#384);
#256=CARTESIAN_POINT('',(-1.82707480635585E-012,6.00000000000003,12.0));
#257=POINT_STYLE(' ',#385,POSITIVE_LENGTH_MEASURE(1.0E-006),#386);
#258=CARTESIAN_POINT('',(-1.33559952719417E-012,4.39230484541329,18.0));
#259=POINT_STYLE(' ',#387,POSITIVE_LENGTH_MEASURE(1.0E-006),#388);
#260=CARTESIAN_POINT('',(6.68280178870271E-015,-2.99999999999997,-7.40000000000006));
#261=POINT_STYLE(' ',#389,POSITIVE_LENGTH_MEASURE(1.0E-006),#390);
#262=CARTESIAN_POINT('',(-9.09969450108115E-013,3.00000000000003,-2.8421709430404E-014));
#263=CURVE_STYLE('',#391,POSITIVE_LENGTH_MEASURE(1.0E-006),#392);
#264=LINE('',#393,#394);
#265=CURVE_STYLE('',#395,POSITIVE_LENGTH_MEASURE(1.0E-006),#396);
#266=CIRCLE('',#397,3.0);
#267=POINT_STYLE(' ',#398,POSITIVE_LENGTH_MEASURE(1.0E-006),#399);
#268=CARTESIAN_POINT('',(6.66358502844957E-015,-2.5712812921102,-9.00000000000003));
#269=CURVE_STYLE('',#400,POSITIVE_LENGTH_MEASURE(1.0E-006),#401);
#270=LINE('',#402,#403);
#271=PRODUCT_CONTEXT('',#54,'mechanical');
#272=PRODUCT_DEFINITION_FORMATION_WITH_SPECIFIED_SOURCE(' ','NONE',#155,.NOT_KNOWN.);
#273=CARTESIAN_POINT('',(0.0,0.0,0.0));
#274=DIRECTION('',(0.0,0.0,1.0));
#275=DIRECTION('',(1.0,0.0,0.0));
#276= (NAMED_UNIT(#163)LENGTH_UNIT()SI_UNIT(.MILLI.,.METRE.));
#277=DRAUGHTING_PRE_DEFINED_CURVE_FONT('continuous');
#278=COLOUR_RGB('',0.509803950786591,0.509803950786591,0.588235318660736);
#279=AXIS2_PLACEMENT_3D('',#405,#406,#407);
#280=DRAUGHTING_PRE_DEFINED_CURVE_FONT('continuous');
#281=COLOUR_RGB('',0.509803950786591,0.509803950786591,0.588235318660736);
#282=AXIS2_PLACEMENT_3D('',#408,#409,#410);
#283=SURFACE_SIDE_STYLE('',(#411));
#284=EDGE_LOOP('',(#412,#413,#414,#415));
#285=AXIS2_PLACEMENT_3D('',#416,#417,#418);
#286=SURFACE_SIDE_STYLE('',(#419));
#287=EDGE_LOOP('',(#420,#421));
#288=AXIS2_PLACEMENT_3D('',#422,#423,#424);
#289=DRAUGHTING_PRE_DEFINED_CURVE_FONT('continuous');
#290=COLOUR_RGB('',0.509803950786591,0.509803950786591,0.588235318660736);
#291=AXIS2_PLACEMENT_3D('',#425,#426,#427);
#292=SURFACE_SIDE_STYLE('',(#428));
#293=EDGE_LOOP('',(#429,#430));
#294=EDGE_LOOP('',(#431,#432));
#295=AXIS2_PLACEMENT_3D('',#433,#434,#435);
#296=PRE_DEFINED_MARKER('');
#297=COLOUR_RGB('',0.509803950786591,0.509803950786591,0.588235318660736);
#298=DRAUGHTING_PRE_DEFINED_CURVE_FONT('continuous');
#299=COLOUR_RGB('',0.509803950786591,0.509803950786591,0.588235318660736);
#300=AXIS2_PLACEMENT_3D('',#436,#437,#438);
#301=DRAUGHTING_PRE_DEFINED_CURVE_FONT('continuous');
#302=COLOUR_RGB('',0.509803950786591,0.509803950786591,0.588235318660736);
#303=AXIS2_PLACEMENT_3D('',#439,#440,#441);
#304=DRAUGHTING_PRE_DEFINED_CURVE_FONT('continuous');
#305=COLOUR_RGB('',0.509803950786591,0.509803950786591,0.588235318660736);
#306=AXIS2_PLACEMENT_3D('',#442,#443,#444);
#307=SURFACE_SIDE_STYLE('',(#445));
#308=EDGE_LOOP('',(#446,#447,#448,#449));
#309=AXIS2_PLACEMENT_3D('',#450,#451,#452);
#310=DRAUGHTING_PRE_DEFINED_CURVE_FONT('continuous');
#311=COLOUR_RGB('',0.509803950786591,0.509803950786591,0.588235318660736);
#312=AXIS2_PLACEMENT_3D('',#453,#454,#455);
#313=PRE_DEFINED_MARKER('');
#314=COLOUR_RGB('',0.509803950786591,0.509803950786591,0.588235318660736);
#315=DRAUGHTING_PRE_DEFINED_CURVE_FONT('continuous');
#316=COLOUR_RGB('',0.509803950786591,0.509803950786591,0.588235318660736);
#317=AXIS2_PLACEMENT_3D('',#456,#457,#458);
#318=SURFACE_SIDE_STYLE('',(#459));
#319=EDGE_LOOP('',(#460,#461,#462,#463));
#320=AXIS2_PLACEMENT_3D('',#464,#465,#466);
#321=SURFACE_SIDE_STYLE('',(#467));
#322=EDGE_LOOP('',(#468,#469));
#323=AXIS2_PLACEMENT_3D('',#470,#471,#472);
#324=SURFACE_SIDE_STYLE('',(#473));
#325=EDGE_LOOP('',(#474,#475,#476,#477));
#326=AXIS2_PLACEMENT_3D('',#478,#479,#480);
#327=PRE_DEFINED_MARKER('');
#328=COLOUR_RGB('',0.509803950786591,0.509803950786591,0.588235318660736);
#329=DRAUGHTING_PRE_DEFINED_CURVE_FONT('continuous');
#330=COLOUR_RGB('',0.509803950786591,0.509803950786591,0.588235318660736);
#331=AXIS2_PLACEMENT_3D('',#481,#482,#483);
#332=DRAUGHTING_PRE_DEFINED_CURVE_FONT('continuous');
#333=COLOUR_RGB('',0.509803950786591,0.509803950786591,0.588235318660736);
#334=CARTESIAN_POINT('',(9.24241262387349E-013,-2.99999999999997,-3.70000000000005));
#335=VECTOR('',#484,1.0);
#336=DRAUGHTING_PRE_DEFINED_CURVE_FONT('continuous');
#337=COLOUR_RGB('',0.509803950786591,0.509803950786591,0.588235318660736);
#338=CARTESIAN_POINT('',(-8.44439412886562E-013,2.78564064605514,-8.20000000000005));
#339=VECTOR('',#485,1.0);
#340=DRAUGHTING_PRE_DEFINED_CURVE_FONT('continuous');
#341=COLOUR_RGB('',0.509803950786591,0.509803950786591,0.588235318660736);
#342=CARTESIAN_POINT('',(-1.82707480635585E-012,6.00000000000003,5.99999999999997));
#343=VECTOR('',#486,1.0);
#344=DRAUGHTING_PRE_DEFINED_CURVE_FONT('continuous');
#345=COLOUR_RGB('',0.509803950786591,0.509803950786591,0.588235318660736);
#346=AXIS2_PLACEMENT_3D('',#487,#488,#489);
#347=PRE_DEFINED_MARKER('');
#348=COLOUR_RGB('',0.509803950786591,0.509803950786591,0.588235318660736);
#349=SURFACE_SIDE_STYLE('',(#490));
#350=EDGE_LOOP('',(#491,#492,#493,#494));
#351=AXIS2_PLACEMENT_3D('',#495,#496,#497);
#352=PRE_DEFINED_MARKER('');
#353=COLOUR_RGB('',0.509803950786591,0.509803950786591,0.588235318660736);
#354=DRAUGHTING_PRE_DEFINED_CURVE_FONT('continuous');
#355=COLOUR_RGB('',0.509803950786591,0.509803950786591,0.588235318660736);
#356=CARTESIAN_POINT('',(1.59560897905424E-012,-5.1961524227066,15.0));
#357=VECTOR('',#498,1.0);
#358=PRE_DEFINED_MARKER('');
#359=COLOUR_RGB('',0.509803950786591,0.509803950786591,0.588235318660736);
#360=SURFACE_SIDE_STYLE('',(#499));
#361=SURFACE_SIDE_STYLE('',(#500));
#362=EDGE_LOOP('',(#501,#502,#503,#504));
#363=AXIS2_PLACEMENT_3D('',#505,#506,#507);
#364=SURFACE_SIDE_STYLE('',(#508));
#365=EDGE_LOOP('',(#509,#510,#511,#512));
#366=AXIS2_PLACEMENT_3D('',#513,#514,#515);
#367=SURFACE_SIDE_STYLE('',(#516));
#368=EDGE_LOOP('',(#517,#518,#519,#520));
#369=AXIS2_PLACEMENT_3D('',#521,#522,#523);
#370=DRAUGHTING_PRE_DEFINED_CURVE_FONT('continuous');
#371=COLOUR_RGB('',0.509803950786591,0.509803950786591,0.588235318660736);
#372=AXIS2_PLACEMENT_3D('',#524,#525,#526);
#373=PRE_DEFINED_MARKER('');
#374=COLOUR_RGB('',0.509803950786591,0.509803950786591,0.588235318660736);
#375=DRAUGHTING_PRE_DEFINED_CURVE_FONT('continuous');
#376=COLOUR_RGB('',0.509803950786591,0.509803950786591,0.588235318660736);
#377=CARTESIAN_POINT('',(-1.58133716677501E-012,5.19615242270666,15.0));
#378=VECTOR('',#527,1.0);
#379=DRAUGHTING_PRE_DEFINED_CURVE_FONT('continuous');
#380=COLOUR_RGB('',0.509803950786591,0.509803950786591,0.588235318660736);
#381=CARTESIAN_POINT('',(8.58711225165796E-013,-2.78564064605509,-8.20000000000005));
#382=VECTOR('',#528,1.0);
#383=PRE_DEFINED_MARKER('');
#384=COLOUR_RGB('',0.509803950786591,0.509803950786591,0.588235318660736);
#385=PRE_DEFINED_MARKER('');
#386=COLOUR_RGB('',0.509803950786591,0.509803950786591,0.588235318660736);
#387=PRE_DEFINED_MARKER('');
#388=COLOUR_RGB('',0.509803950786591,0.509803950786591,0.588235318660736);
#389=PRE_DEFINED_MARKER('');
#390=COLOUR_RGB('',0.509803950786591,0.509803950786591,0.588235318660736);
#391=DRAUGHTING_PRE_DEFINED_CURVE_FONT('continuous');
#392=COLOUR_RGB('',0.509803950786591,0.509803950786591,0.588235318660736);
#393=CARTESIAN_POINT('',(-9.09969450108115E-013,3.00000000000003,-3.70000000000005));
#394=VECTOR('',#529,1.0);
#395=DRAUGHTING_PRE_DEFINED_CURVE_FONT('continuous');
#396=COLOUR_RGB('',0.509803950786591,0.509803950786591,0.588235318660736);
#397=AXIS2_PLACEMENT_3D('',#530,#531,#532);
#398=PRE_DEFINED_MARKER('');
#399=COLOUR_RGB('',0.509803950786591,0.509803950786591,0.588235318660736);
#400=DRAUGHTING_PRE_DEFINED_CURVE_FONT('continuous');
#401=COLOUR_RGB('',0.509803950786591,0.509803950786591,0.588235318660736);
#402=CARTESIAN_POINT('',(1.84134661863508E-012,-5.99999999999997,5.99999999999997));
#403=VECTOR('',#533,1.0);
#405=CARTESIAN_POINT('',(7.13590613961699E-015,2.8421709430404E-014,18.0));
#406=DIRECTION('',(0.0,0.0,1.0));
#407=DIRECTION('',(3.05824246051293E-013,-1.0,0.0));
#408=CARTESIAN_POINT('',(7.13590613961699E-015,2.8421709430404E-014,18.0));
#409=DIRECTION('',(0.0,0.0,1.0));
#410=DIRECTION('',(3.05824246051293E-013,-1.0,0.0));
#411=SURFACE_STYLE_FILL_AREA(#534);
#412=ORIENTED_EDGE('',*,*,#138,.F.);
#413=ORIENTED_EDGE('',*,*,#112,.T.);
#414=ORIENTED_EDGE('',*,*,#108,.F.);
#415=ORIENTED_EDGE('',*,*,#82,.F.);
#416=CARTESIAN_POINT('',(7.13590613961699E-015,2.8421709430404E-014,-8.20000000000005));
#417=DIRECTION('',(-0.0,0.0,1.0));
#418=DIRECTION('',(3.05824246051293E-013,-1.0,0.0));
#419=SURFACE_STYLE_FILL_AREA(#535);
#420=ORIENTED_EDGE('',*,*,#112,.F.);
#421=ORIENTED_EDGE('',*,*,#94,.F.);
#422=CARTESIAN_POINT('',(6.89974558403328E-015,-1.28564064605509,-9.00000000000003));
#423=DIRECTION('',(0.0,0.0,-1.0));
#424=DIRECTION('',(1.83690953073357E-016,1.0,0.0));
#425=CARTESIAN_POINT('',(7.13590613961699E-015,2.8421709430404E-014,12.0));
#426=DIRECTION('',(0.0,0.0,1.0));
#427=DIRECTION('',(3.05824246051293E-013,-1.0,0.0));
#428=SURFACE_STYLE_FILL_AREA(#536);
#429=ORIENTED_EDGE('',*,*,#132,.F.);
#430=ORIENTED_EDGE('',*,*,#86,.F.);
#431=ORIENTED_EDGE('',*,*,#150,.T.);
#432=ORIENTED_EDGE('',*,*,#84,.T.);
#433=CARTESIAN_POINT('',(6.86036971000695E-015,-4.49999999999997,-2.8421709430404E-014));
#434=DIRECTION('',(0.0,0.0,-1.0));
#435=DIRECTION('',(1.83690953073357E-016,1.0,0.0));
#436=CARTESIAN_POINT('',(7.13590613961699E-015,2.8421709430404E-014,-7.40000000000006));
#437=DIRECTION('',(0.0,0.0,1.0));
#438=DIRECTION('',(3.05824246051293E-013,-1.0,0.0));
#439=CARTESIAN_POINT('',(7.13590613961699E-015,2.8421709430404E-014,-2.8421709430404E-014));
#440=DIRECTION('',(0.0,0.0,1.0));
#441=DIRECTION('',(3.05824246051293E-013,-1.0,0.0));
#442=CARTESIAN_POINT('',(7.13590613961699E-015,2.8421709430404E-014,-2.8421709430404E-014));
#443=DIRECTION('',(0.0,0.0,1.0));
#444=DIRECTION('',(3.05824246051293E-013,-1.0,0.0));
#445=SURFACE_STYLE_FILL_AREA(#537);
#446=ORIENTED_EDGE('',*,*,#154,.F.);
#447=ORIENTED_EDGE('',*,*,#132,.T.);
#448=ORIENTED_EDGE('',*,*,#110,.F.);
#449=ORIENTED_EDGE('',*,*,#104,.F.);
#450=CARTESIAN_POINT('',(7.13590613961699E-015,2.8421709430404E-014,5.99999999999997));
#451=DIRECTION('',(-0.0,-0.0,-1.0));
#452=DIRECTION('',(3.05824246051293E-013,-1.0,0.0));
#453=CARTESIAN_POINT('',(7.13590613961699E-015,2.8421709430404E-014,-7.40000000000006));
#454=DIRECTION('',(0.0,0.0,1.0));
#455=DIRECTION('',(3.05824246051293E-013,-1.0,0.0));
#456=CARTESIAN_POINT('',(7.13590613961699E-015,2.8421709430404E-014,-9.00000000000003));
#457=DIRECTION('',(0.0,0.0,1.0));
#458=DIRECTION('',(3.05824246051293E-013,-1.0,0.0));
#459=SURFACE_STYLE_FILL_AREA(#538);
#460=ORIENTED_EDGE('',*,*,#106,.T.);
#461=ORIENTED_EDGE('',*,*,#84,.F.);
#462=ORIENTED_EDGE('',*,*,#148,.T.);
#463=ORIENTED_EDGE('',*,*,#90,.T.);
#464=CARTESIAN_POINT('',(7.13590613961699E-015,2.8421709430404E-014,-3.70000000000005));
#465=DIRECTION('',(-0.0,-0.0,-1.0));
#466=DIRECTION('',(3.05824246051293E-013,-1.0,0.0));
#467=SURFACE_STYLE_FILL_AREA(#539);
#468=ORIENTED_EDGE('',*,*,#68,.T.);
#469=ORIENTED_EDGE('',*,*,#70,.T.);
#470=CARTESIAN_POINT('',(8.38571138565586E-015,-2.1961524227066,18.0));
#471=DIRECTION('',(0.0,0.0,1.0));
#472=DIRECTION('',(-1.83690953073357E-016,-1.0,0.0));
#473=SURFACE_STYLE_FILL_AREA(#540);
#474=ORIENTED_EDGE('',*,*,#154,.T.);
#475=ORIENTED_EDGE('',*,*,#76,.F.);
#476=ORIENTED_EDGE('',*,*,#110,.T.);
#477=ORIENTED_EDGE('',*,*,#86,.T.);
#478=CARTESIAN_POINT('',(7.13590613961699E-015,2.8421709430404E-014,5.99999999999997));
#479=DIRECTION('',(-0.0,-0.0,-1.0));
#480=DIRECTION('',(3.05824246051293E-013,-1.0,0.0));
#481=CARTESIAN_POINT('',(7.13590613961699E-015,2.8421709430404E-014,12.0));
#482=DIRECTION('',(0.0,0.0,1.0));
#483=DIRECTION('',(3.05824246051293E-013,-1.0,0.0));
#484=DIRECTION('',(0.0,0.0,1.0));
#485=DIRECTION('',(7.9121444187479E-014,-0.258819045102512,-0.965925826289071));
#486=DIRECTION('',(-0.0,-0.0,-1.0));
#487=CARTESIAN_POINT('',(7.13590613961699E-015,2.8421709430404E-014,-9.00000000000003));
#488=DIRECTION('',(0.0,0.0,1.0));
#489=DIRECTION('',(3.05824246051293E-013,-1.0,0.0));
#490=SURFACE_STYLE_FILL_AREA(#541);
#491=ORIENTED_EDGE('',*,*,#120,.T.);
#492=ORIENTED_EDGE('',*,*,#70,.F.);
#493=ORIENTED_EDGE('',*,*,#136,.T.);
#494=ORIENTED_EDGE('',*,*,#76,.T.);
#495=CARTESIAN_POINT('',(7.13590613961699E-015,2.8421709430404E-014,15.0));
#496=DIRECTION('',(-0.0,-0.0,-1.0));
#497=DIRECTION('',(3.05824246051293E-013,-1.0,0.0));
#498=DIRECTION('',(-7.91214441874817E-014,0.258819045102521,0.965925826289068));
#499=SURFACE_STYLE_FILL_AREA(#542);
#500=SURFACE_STYLE_FILL_AREA(#543);
#501=ORIENTED_EDGE('',*,*,#120,.F.);
#502=ORIENTED_EDGE('',*,*,#104,.T.);
#503=ORIENTED_EDGE('',*,*,#136,.F.);
#504=ORIENTED_EDGE('',*,*,#68,.F.);
#505=CARTESIAN_POINT('',(7.13590613961699E-015,2.8421709430404E-014,15.0));
#506=DIRECTION('',(-0.0,-0.0,-1.0));
#507=DIRECTION('',(3.05824246051293E-013,-1.0,0.0));
#508=SURFACE_STYLE_FILL_AREA(#544);
#509=ORIENTED_EDGE('',*,*,#138,.T.);
#510=ORIENTED_EDGE('',*,*,#90,.F.);
#511=ORIENTED_EDGE('',*,*,#108,.T.);
#512=ORIENTED_EDGE('',*,*,#94,.T.);
#513=CARTESIAN_POINT('',(7.13590613961699E-015,2.8421709430404E-014,-8.20000000000005));
#514=DIRECTION('',(-0.0,0.0,1.0));
#515=DIRECTION('',(3.05824246051293E-013,-1.0,0.0));
#516=SURFACE_STYLE_FILL_AREA(#545);
#517=ORIENTED_EDGE('',*,*,#106,.F.);
#518=ORIENTED_EDGE('',*,*,#82,.T.);
#519=ORIENTED_EDGE('',*,*,#148,.F.);
#520=ORIENTED_EDGE('',*,*,#150,.F.);
#521=CARTESIAN_POINT('',(7.13590613961699E-015,2.8421709430404E-014,-3.70000000000005));
#522=DIRECTION('',(-0.0,-0.0,-1.0));
#523=DIRECTION('',(3.05824246051293E-013,-1.0,0.0));
#524=CARTESIAN_POINT('',(7.13590613961699E-015,2.8421709430404E-014,-2.8421709430404E-014));
#525=DIRECTION('',(0.0,0.0,1.0));
#526=DIRECTION('',(3.05824246051293E-013,-1.0,0.0));
#527=DIRECTION('',(-7.91214441874817E-014,0.258819045102521,-0.965925826289068));
#528=DIRECTION('',(7.9121444187479E-014,-0.258819045102512,0.965925826289071));
#529=DIRECTION('',(-0.0,-0.0,-1.0));
#530=CARTESIAN_POINT('',(7.13590613961699E-015,2.8421709430404E-014,-2.8421709430404E-014));
#531=DIRECTION('',(0.0,0.0,1.0));
#532=DIRECTION('',(3.05824246051293E-013,-1.0,0.0));
#533=DIRECTION('',(0.0,0.0,1.0));
#534=FILL_AREA_STYLE('',(#546));
#535=FILL_AREA_STYLE('',(#547));
#536=FILL_AREA_STYLE('',(#548));
#537=FILL_AREA_STYLE('',(#549));
#538=FILL_AREA_STYLE('',(#550));
#539=FILL_AREA_STYLE('',(#551));
#540=FILL_AREA_STYLE('',(#552));
#541=FILL_AREA_STYLE('',(#553));
#542=FILL_AREA_STYLE('',(#554));
#543=FILL_AREA_STYLE('',(#555));
#544=FILL_AREA_STYLE('',(#556));
#545=FILL_AREA_STYLE('',(#557));
#546=FILL_AREA_STYLE_COLOUR('',#558);
#547=FILL_AREA_STYLE_COLOUR('',#559);
#548=FILL_AREA_STYLE_COLOUR('',#560);
#549=FILL_AREA_STYLE_COLOUR('',#561);
#550=FILL_AREA_STYLE_COLOUR('',#562);
#551=FILL_AREA_STYLE_COLOUR('',#563);
#552=FILL_AREA_STYLE_COLOUR('',#564);
#553=FILL_AREA_STYLE_COLOUR('',#565);
#554=FILL_AREA_STYLE_COLOUR('',#566);
#555=FILL_AREA_STYLE_COLOUR('',#567);
#556=FILL_AREA_STYLE_COLOUR('',#568);
#557=FILL_AREA_STYLE_COLOUR('',#569);
#558=COLOUR_RGB('',0.509803950786591,0.509803950786591,0.588235318660736);
#559=COLOUR_RGB('',0.509803950786591,0.509803950786591,0.588235318660736);
#560=COLOUR_RGB('',0.509803950786591,0.509803950786591,0.588235318660736);
#561=COLOUR_RGB('',0.509803950786591,0.509803950786591,0.588235318660736);
#562=COLOUR_RGB('',0.509803950786591,0.509803950786591,0.588235318660736);
#563=COLOUR_RGB('',0.509803950786591,0.509803950786591,0.588235318660736);
#564=COLOUR_RGB('',0.509803950786591,0.509803950786591,0.588235318660736);
#565=COLOUR_RGB('',0.509803950786591,0.509803950786591,0.588235318660736);
#566=COLOUR_RGB('',0.509803950786591,0.509803950786591,0.588235318660736);
#567=COLOUR_RGB('',0.509803950786591,0.509803950786591,0.588235318660736);
#568=COLOUR_RGB('',0.509803950786591,0.509803950786591,0.588235318660736);
#569=COLOUR_RGB('',0.509803950786591,0.509803950786591,0.588235318660736);
ENDSEC;
END-ISO-10303-21;
