ISO-10303-21;
HEADER;
FILE_DESCRIPTION(('STEP AP214'),'1');
FILE_NAME(' ','  ',('TraceParts'),('TraceParts S.A.'),'XStep 1.0',' ',' ');
FILE_SCHEMA(('automotive_design'));
ENDSEC;
DATA;
#1=MECHANICAL_DESIGN_GEOMETRIC_PRESENTATION_REPRESENTATION(' ',(#10,#11,#12,#13,#14,#15,#16,#17,#18,#19,#20,#21,#22,#23,#24,#25,#26,#27,#28,#29,#30,#31,#32,#33,#34,#35,#36,#37,#38,#39,#40,#41,#42,#43,#44),#6);
#2=PRODUCT_DEFINITION_CONTEXT('',#45,'design');
#3=APPLICATION_PROTOCOL_DEFINITION('INTERNATIONAL STANDARD','automotive_design',1994,#45);
#4=PRODUCT_CATEGORY_RELATIONSHIP('NONE','NONE',#46,#47);
#5=SHAPE_DEFINITION_REPRESENTATION(#48,#49);
#6= (GEOMETRIC_REPRESENTATION_CONTEXT(3)GLOBAL_UNCERTAINTY_ASSIGNED_CONTEXT((#52))GLOBAL_UNIT_ASSIGNED_CONTEXT((#54,#55,#56))REPRESENTATION_CONTEXT('NONE','WORKSPACE'));
#10=STYLED_ITEM('',(#58),#59);
#11=STYLED_ITEM('',(#60),#61);
#12=STYLED_ITEM('',(#62),#63);
#13=STYLED_ITEM('',(#64),#65);
#14=STYLED_ITEM('',(#66),#67);
#15=STYLED_ITEM('',(#68),#69);
#16=STYLED_ITEM('',(#70),#71);
#17=STYLED_ITEM('',(#72),#73);
#18=STYLED_ITEM('',(#74),#75);
#19=STYLED_ITEM('',(#76),#77);
#20=STYLED_ITEM('',(#78),#79);
#21=STYLED_ITEM('',(#80),#81);
#22=STYLED_ITEM('',(#82),#83);
#23=STYLED_ITEM('',(#84),#85);
#24=STYLED_ITEM('',(#86),#87);
#25=STYLED_ITEM('',(#88),#89);
#26=STYLED_ITEM('',(#90),#91);
#27=STYLED_ITEM('',(#92),#93);
#28=STYLED_ITEM('',(#94),#95);
#29=STYLED_ITEM('',(#96),#97);
#30=STYLED_ITEM('',(#98),#99);
#31=STYLED_ITEM('',(#100),#101);
#32=STYLED_ITEM('',(#102),#103);
#33=STYLED_ITEM('',(#104),#105);
#34=STYLED_ITEM('',(#106),#107);
#35=STYLED_ITEM('',(#108),#109);
#36=STYLED_ITEM('',(#110),#111);
#37=STYLED_ITEM('',(#112),#113);
#38=STYLED_ITEM('',(#114),#115);
#39=STYLED_ITEM('',(#116),#117);
#40=STYLED_ITEM('',(#118),#119);
#41=STYLED_ITEM('',(#120),#121);
#42=STYLED_ITEM('',(#122),#123);
#43=STYLED_ITEM('',(#124),#125);
#44=STYLED_ITEM('',(#126),#127);
#45=APPLICATION_CONTEXT(' ');
#46=PRODUCT_CATEGORY('part','NONE');
#47=PRODUCT_RELATED_PRODUCT_CATEGORY('detail',' ',(#128));
#48=PRODUCT_DEFINITION_SHAPE('NONE','NONE',#129);
#49=ADVANCED_BREP_SHAPE_REPRESENTATION('1',(#65,#130),#6);
#52=UNCERTAINTY_MEASURE_WITH_UNIT(LENGTH_MEASURE(1.0E-006),#54,'','');
#54= (CONVERSION_BASED_UNIT('MILLIMETRE',#133)LENGTH_UNIT()NAMED_UNIT(#136));
#55= (NAMED_UNIT(#138)PLANE_ANGLE_UNIT()SI_UNIT($,.RADIAN.));
#56= (NAMED_UNIT(#138)SOLID_ANGLE_UNIT()SI_UNIT($,.STERADIAN.));
#58=PRESENTATION_STYLE_ASSIGNMENT((#144));
#59=VERTEX_POINT('',#145);
#60=PRESENTATION_STYLE_ASSIGNMENT((#146));
#61=EDGE_CURVE('',#89,#59,#147,.T.);
#62=PRESENTATION_STYLE_ASSIGNMENT((#148));
#63=ADVANCED_FACE('',(#149),#150,.T.);
#64=PRESENTATION_STYLE_ASSIGNMENT((#151));
#65=MANIFOLD_SOLID_BREP('1',#152);
#66=PRESENTATION_STYLE_ASSIGNMENT((#153));
#67=ADVANCED_FACE('',(#154),#155,.T.);
#68=PRESENTATION_STYLE_ASSIGNMENT((#156));
#69=ADVANCED_FACE('',(#157,#158),#159,.T.);
#70=PRESENTATION_STYLE_ASSIGNMENT((#160));
#71=EDGE_CURVE('',#119,#87,#161,.T.);
#72=PRESENTATION_STYLE_ASSIGNMENT((#162));
#73=VERTEX_POINT('',#163);
#74=PRESENTATION_STYLE_ASSIGNMENT((#164));
#75=ADVANCED_FACE('',(#165),#166,.F.);
#76=PRESENTATION_STYLE_ASSIGNMENT((#167));
#77=EDGE_CURVE('',#111,#85,#168,.T.);
#78=PRESENTATION_STYLE_ASSIGNMENT((#169));
#79=VERTEX_POINT('',#170);
#80=PRESENTATION_STYLE_ASSIGNMENT((#171));
#81=EDGE_CURVE('',#119,#111,#172,.T.);
#82=PRESENTATION_STYLE_ASSIGNMENT((#173));
#83=EDGE_CURVE('',#79,#97,#174,.T.);
#84=PRESENTATION_STYLE_ASSIGNMENT((#175));
#85=VERTEX_POINT('',#176);
#86=PRESENTATION_STYLE_ASSIGNMENT((#177));
#87=VERTEX_POINT('',#178);
#88=PRESENTATION_STYLE_ASSIGNMENT((#179));
#89=VERTEX_POINT('',#180);
#90=PRESENTATION_STYLE_ASSIGNMENT((#181));
#91=EDGE_CURVE('',#73,#113,#182,.T.);
#92=PRESENTATION_STYLE_ASSIGNMENT((#183));
#93=ADVANCED_FACE('',(#184),#185,.F.);
#94=PRESENTATION_STYLE_ASSIGNMENT((#186));
#95=EDGE_CURVE('',#85,#87,#187,.T.);
#96=PRESENTATION_STYLE_ASSIGNMENT((#188));
#97=VERTEX_POINT('',#189);
#98=PRESENTATION_STYLE_ASSIGNMENT((#190));
#99=EDGE_CURVE('',#97,#89,#191,.T.);
#100=PRESENTATION_STYLE_ASSIGNMENT((#192));
#101=ADVANCED_FACE('',(#193,#194),#195,.T.);
#102=PRESENTATION_STYLE_ASSIGNMENT((#196));
#103=EDGE_CURVE('',#97,#79,#197,.T.);
#104=PRESENTATION_STYLE_ASSIGNMENT((#198));
#105=EDGE_CURVE('',#79,#113,#199,.T.);
#106=PRESENTATION_STYLE_ASSIGNMENT((#200));
#107=ADVANCED_FACE('',(#201),#202,.F.);
#108=PRESENTATION_STYLE_ASSIGNMENT((#203));
#109=EDGE_CURVE('',#113,#73,#204,.T.);
#110=PRESENTATION_STYLE_ASSIGNMENT((#205));
#111=VERTEX_POINT('',#206);
#112=PRESENTATION_STYLE_ASSIGNMENT((#207));
#113=VERTEX_POINT('',#208);
#114=PRESENTATION_STYLE_ASSIGNMENT((#209));
#115=EDGE_CURVE('',#85,#111,#210,.T.);
#116=PRESENTATION_STYLE_ASSIGNMENT((#211));
#117=EDGE_CURVE('',#59,#79,#212,.T.);
#118=PRESENTATION_STYLE_ASSIGNMENT((#213));
#119=VERTEX_POINT('',#214);
#120=PRESENTATION_STYLE_ASSIGNMENT((#215));
#121=EDGE_CURVE('',#73,#97,#216,.T.);
#122=PRESENTATION_STYLE_ASSIGNMENT((#217));
#123=EDGE_CURVE('',#87,#119,#218,.T.);
#124=PRESENTATION_STYLE_ASSIGNMENT((#219));
#125=ADVANCED_FACE('',(#220),#221,.F.);
#126=PRESENTATION_STYLE_ASSIGNMENT((#222));
#127=EDGE_CURVE('',#59,#89,#223,.T.);
#128=PRODUCT('1','1','PART-1-DESC',(#224));
#129=PRODUCT_DEFINITION('NONE','NONE',#225,#2);
#130=AXIS2_PLACEMENT_3D('',#226,#227,#228);
#133=LENGTH_MEASURE_WITH_UNIT(LENGTH_MEASURE(1.0),#229);
#136=DIMENSIONAL_EXPONENTS(1.0,0.0,0.0,0.0,0.0,0.0,0.0);
#138=DIMENSIONAL_EXPONENTS(0.0,0.0,0.0,0.0,0.0,0.0,0.0);
#144=POINT_STYLE(' ',#230,POSITIVE_LENGTH_MEASURE(1.0E-006),#231);
#145=CARTESIAN_POINT('',(8.25,1.38971141482387E-014,-2.8421709430404E-014));
#146=CURVE_STYLE('',#232,POSITIVE_LENGTH_MEASURE(1.0E-006),#233);
#147=CIRCLE('',#234,8.25);
#148=SURFACE_STYLE_USAGE(.BOTH.,#235);
#149=FACE_OUTER_BOUND('',#236,.T.);
#150=CYLINDRICAL_SURFACE('',#237,14.0);
#151=SURFACE_STYLE_USAGE(.BOTH.,#238);
#152=CLOSED_SHELL('',(#93,#67,#75,#107,#101,#63,#69,#125));
#153=SURFACE_STYLE_USAGE(.BOTH.,#239);
#154=FACE_OUTER_BOUND('',#240,.T.);
#155=CYLINDRICAL_SURFACE('',#241,14.0);
#156=SURFACE_STYLE_USAGE(.BOTH.,#242);
#157=FACE_BOUND('',#243,.T.);
#158=FACE_OUTER_BOUND('',#244,.T.);
#159=PLANE('',#245);
#160=CURVE_STYLE('',#246,POSITIVE_LENGTH_MEASURE(1.0E-006),#247);
#161=CIRCLE('',#248,14.0);
#162=POINT_STYLE(' ',#249,POSITIVE_LENGTH_MEASURE(1.0E-006),#250);
#163=CARTESIAN_POINT('',(-12.4,1.00153533101329E-014,5.59999999999999));
#164=SURFACE_STYLE_USAGE(.BOTH.,#251);
#165=FACE_OUTER_BOUND('',#252,.T.);
#166=CONICAL_SURFACE('',#253,10.325,1.04719755119659);
#167=CURVE_STYLE('',#254,POSITIVE_LENGTH_MEASURE(1.0E-006),#255);
#168=CIRCLE('',#256,14.0);
#169=POINT_STYLE(' ',#257,POSITIVE_LENGTH_MEASURE(1.0E-006),#258);
#170=CARTESIAN_POINT('',(8.25,1.38971141482387E-014,3.20399638286298));
#171=CURVE_STYLE('',#259,POSITIVE_LENGTH_MEASURE(1.0E-006),#260);
#172=LINE('',#261,#262);
#173=CURVE_STYLE('',#263,POSITIVE_LENGTH_MEASURE(1.0E-006),#264);
#174=CIRCLE('',#265,8.25);
#175=POINT_STYLE(' ',#266,POSITIVE_LENGTH_MEASURE(1.0E-006),#267);
#176=CARTESIAN_POINT('',(-14.0,9.81941629352136E-015,5.59999999999999));
#177=POINT_STYLE(' ',#268,POSITIVE_LENGTH_MEASURE(1.0E-006),#269);
#178=CARTESIAN_POINT('',(-14.0,9.47652651445109E-015,0.0));
#179=POINT_STYLE(' ',#270,POSITIVE_LENGTH_MEASURE(1.0E-006),#271);
#180=CARTESIAN_POINT('',(-8.25,1.0180675167899E-014,-2.8421709430404E-014));
#181=CURVE_STYLE('',#272,POSITIVE_LENGTH_MEASURE(1.0E-006),#273);
#182=CIRCLE('',#274,12.4);
#183=SURFACE_STYLE_USAGE(.BOTH.,#275);
#184=FACE_OUTER_BOUND('',#276,.T.);
#185=CYLINDRICAL_SURFACE('',#277,8.25);
#186=CURVE_STYLE('',#278,POSITIVE_LENGTH_MEASURE(1.0E-006),#279);
#187=LINE('',#280,#281);
#188=POINT_STYLE(' ',#282,POSITIVE_LENGTH_MEASURE(1.0E-006),#283);
#189=CARTESIAN_POINT('',(-8.25,1.03768568843029E-014,3.20399638286298));
#190=CURVE_STYLE('',#284,POSITIVE_LENGTH_MEASURE(1.0E-006),#285);
#191=LINE('',#286,#287);
#192=SURFACE_STYLE_USAGE(.BOTH.,#288);
#193=FACE_OUTER_BOUND('',#289,.T.);
#194=FACE_BOUND('',#290,.T.);
#195=PLANE('',#291);
#196=CURVE_STYLE('',#292,POSITIVE_LENGTH_MEASURE(1.0E-006),#293);
#197=CIRCLE('',#294,8.25);
#198=CURVE_STYLE('',#295,POSITIVE_LENGTH_MEASURE(1.0E-006),#296);
#199=LINE('',#297,#298);
#200=SURFACE_STYLE_USAGE(.BOTH.,#299);
#201=FACE_OUTER_BOUND('',#300,.T.);
#202=CONICAL_SURFACE('',#301,10.325,1.04719755119659);
#203=CURVE_STYLE('',#302,POSITIVE_LENGTH_MEASURE(1.0E-006),#303);
#204=CIRCLE('',#304,12.4);
#205=POINT_STYLE(' ',#305,POSITIVE_LENGTH_MEASURE(1.0E-006),#306);
#206=CARTESIAN_POINT('',(14.0,1.5544227059312E-014,5.59999999999999));
#207=POINT_STYLE(' ',#307,POSITIVE_LENGTH_MEASURE(1.0E-006),#308);
#208=CARTESIAN_POINT('',(12.4,1.50858999884046E-014,5.59999999999999));
#209=CURVE_STYLE('',#309,POSITIVE_LENGTH_MEASURE(1.0E-006),#310);
#210=CIRCLE('',#311,14.0);
#211=CURVE_STYLE('',#312,POSITIVE_LENGTH_MEASURE(1.0E-006),#313);
#212=LINE('',#314,#315);
#213=POINT_STYLE(' ',#316,POSITIVE_LENGTH_MEASURE(1.0E-006),#317);
#214=CARTESIAN_POINT('',(14.0,1.5544227059312E-014,0.0));
#215=CURVE_STYLE('',#318,POSITIVE_LENGTH_MEASURE(1.0E-006),#319);
#216=LINE('',#320,#321);
#217=CURVE_STYLE('',#322,POSITIVE_LENGTH_MEASURE(1.0E-006),#323);
#218=CIRCLE('',#324,14.0);
#219=SURFACE_STYLE_USAGE(.BOTH.,#325);
#220=FACE_OUTER_BOUND('',#326,.T.);
#221=CYLINDRICAL_SURFACE('',#327,8.25);
#222=CURVE_STYLE('',#328,POSITIVE_LENGTH_MEASURE(1.0E-006),#329);
#223=CIRCLE('',#330,8.25);
#224=PRODUCT_CONTEXT('',#45,'mechanical');
#225=PRODUCT_DEFINITION_FORMATION_WITH_SPECIFIED_SOURCE(' ','NONE',#128,.NOT_KNOWN.);
#226=CARTESIAN_POINT('',(0.0,0.0,0.0));
#227=DIRECTION('',(0.0,0.0,1.0));
#228=DIRECTION('',(1.0,0.0,0.0));
#229= (NAMED_UNIT(#136)LENGTH_UNIT()SI_UNIT(.MILLI.,.METRE.));
#230=PRE_DEFINED_MARKER('');
#231=COLOUR_RGB('',0.509803950786591,0.509803950786591,0.588235318660736);
#232=DRAUGHTING_PRE_DEFINED_CURVE_FONT('continuous');
#233=COLOUR_RGB('',0.509803950786591,0.509803950786591,0.588235318660736);
#234=AXIS2_PLACEMENT_3D('',#332,#333,#334);
#235=SURFACE_SIDE_STYLE('',(#335));
#236=EDGE_LOOP('',(#336,#337,#338,#339));
#237=AXIS2_PLACEMENT_3D('',#340,#341,#342);
#238=SURFACE_SIDE_STYLE('',(#343));
#239=SURFACE_SIDE_STYLE('',(#344));
#240=EDGE_LOOP('',(#345,#346,#347,#348));
#241=AXIS2_PLACEMENT_3D('',#349,#350,#351);
#242=SURFACE_SIDE_STYLE('',(#352));
#243=EDGE_LOOP('',(#353,#354));
#244=EDGE_LOOP('',(#355,#356));
#245=AXIS2_PLACEMENT_3D('',#357,#358,#359);
#246=DRAUGHTING_PRE_DEFINED_CURVE_FONT('continuous');
#247=COLOUR_RGB('',0.509803950786591,0.509803950786591,0.588235318660736);
#248=AXIS2_PLACEMENT_3D('',#360,#361,#362);
#249=PRE_DEFINED_MARKER('');
#250=COLOUR_RGB('',0.509803950786591,0.509803950786591,0.588235318660736);
#251=SURFACE_SIDE_STYLE('',(#363));
#252=EDGE_LOOP('',(#364,#365,#366,#367));
#253=AXIS2_PLACEMENT_3D('',#368,#369,#370);
#254=DRAUGHTING_PRE_DEFINED_CURVE_FONT('continuous');
#255=COLOUR_RGB('',0.509803950786591,0.509803950786591,0.588235318660736);
#256=AXIS2_PLACEMENT_3D('',#371,#372,#373);
#257=PRE_DEFINED_MARKER('');
#258=COLOUR_RGB('',0.509803950786591,0.509803950786591,0.588235318660736);
#259=DRAUGHTING_PRE_DEFINED_CURVE_FONT('continuous');
#260=COLOUR_RGB('',0.509803950786591,0.509803950786591,0.588235318660736);
#261=CARTESIAN_POINT('',(14.0,1.5544227059312E-014,2.8));
#262=VECTOR('',#374,1.0);
#263=DRAUGHTING_PRE_DEFINED_CURVE_FONT('continuous');
#264=COLOUR_RGB('',0.509803950786591,0.509803950786591,0.588235318660736);
#265=AXIS2_PLACEMENT_3D('',#375,#376,#377);
#266=PRE_DEFINED_MARKER('');
#267=COLOUR_RGB('',0.509803950786591,0.509803950786591,0.588235318660736);
#268=PRE_DEFINED_MARKER('');
#269=COLOUR_RGB('',0.509803950786591,0.509803950786591,0.588235318660736);
#270=PRE_DEFINED_MARKER('');
#271=COLOUR_RGB('',0.509803950786591,0.509803950786591,0.588235318660736);
#272=DRAUGHTING_PRE_DEFINED_CURVE_FONT('continuous');
#273=COLOUR_RGB('',0.509803950786591,0.509803950786591,0.588235318660736);
#274=AXIS2_PLACEMENT_3D('',#378,#379,#380);
#275=SURFACE_SIDE_STYLE('',(#381));
#276=EDGE_LOOP('',(#382,#383,#384,#385));
#277=AXIS2_PLACEMENT_3D('',#386,#387,#388);
#278=DRAUGHTING_PRE_DEFINED_CURVE_FONT('continuous');
#279=COLOUR_RGB('',0.509803950786591,0.509803950786591,0.588235318660736);
#280=CARTESIAN_POINT('',(-14.0,7.52350331843339E-015,2.8));
#281=VECTOR('',#389,1.0);
#282=PRE_DEFINED_MARKER('');
#283=COLOUR_RGB('',0.509803950786591,0.509803950786591,0.588235318660736);
#284=DRAUGHTING_PRE_DEFINED_CURVE_FONT('continuous');
#285=COLOUR_RGB('',0.509803950786591,0.509803950786591,0.588235318660736);
#286=CARTESIAN_POINT('',(-8.25,9.17061622950667E-015,1.60199819143148));
#287=VECTOR('',#390,1.0);
#288=SURFACE_SIDE_STYLE('',(#391));
#289=EDGE_LOOP('',(#392,#393));
#290=EDGE_LOOP('',(#394,#395));
#291=AXIS2_PLACEMENT_3D('',#396,#397,#398);
#292=DRAUGHTING_PRE_DEFINED_CURVE_FONT('continuous');
#293=COLOUR_RGB('',0.509803950786591,0.509803950786591,0.588235318660736);
#294=AXIS2_PLACEMENT_3D('',#399,#400,#401);
#295=DRAUGHTING_PRE_DEFINED_CURVE_FONT('continuous');
#296=COLOUR_RGB('',0.509803950786591,0.509803950786591,0.588235318660736);
#297=CARTESIAN_POINT('',(10.325,1.44915070683217E-014,4.40199819143149));
#298=VECTOR('',#402,1.0);
#299=SURFACE_SIDE_STYLE('',(#403));
#300=EDGE_LOOP('',(#404,#405,#406,#407));
#301=AXIS2_PLACEMENT_3D('',#408,#409,#410);
#302=DRAUGHTING_PRE_DEFINED_CURVE_FONT('continuous');
#303=COLOUR_RGB('',0.509803950786591,0.509803950786591,0.588235318660736);
#304=AXIS2_PLACEMENT_3D('',#411,#412,#413);
#305=PRE_DEFINED_MARKER('');
#306=COLOUR_RGB('',0.509803950786591,0.509803950786591,0.588235318660736);
#307=PRE_DEFINED_MARKER('');
#308=COLOUR_RGB('',0.509803950786591,0.509803950786591,0.588235318660736);
#309=DRAUGHTING_PRE_DEFINED_CURVE_FONT('continuous');
#310=COLOUR_RGB('',0.509803950786591,0.509803950786591,0.588235318660736);
#311=AXIS2_PLACEMENT_3D('',#414,#415,#416);
#312=DRAUGHTING_PRE_DEFINED_CURVE_FONT('continuous');
#313=COLOUR_RGB('',0.509803950786591,0.509803950786591,0.588235318660736);
#314=CARTESIAN_POINT('',(8.25,1.38971141482387E-014,1.60199819143148));
#315=VECTOR('',#417,1.0);
#316=PRE_DEFINED_MARKER('');
#317=COLOUR_RGB('',0.509803950786591,0.509803950786591,0.588235318660736);
#318=DRAUGHTING_PRE_DEFINED_CURVE_FONT('continuous');
#319=COLOUR_RGB('',0.509803950786591,0.509803950786591,0.588235318660736);
#320=CARTESIAN_POINT('',(-10.325,8.5762233094237E-015,4.40199819143149));
#321=VECTOR('',#418,1.0);
#322=DRAUGHTING_PRE_DEFINED_CURVE_FONT('continuous');
#323=COLOUR_RGB('',0.509803950786591,0.509803950786591,0.588235318660736);
#324=AXIS2_PLACEMENT_3D('',#419,#420,#421);
#325=SURFACE_SIDE_STYLE('',(#422));
#326=EDGE_LOOP('',(#423,#424,#425,#426));
#327=AXIS2_PLACEMENT_3D('',#427,#428,#429);
#328=DRAUGHTING_PRE_DEFINED_CURVE_FONT('continuous');
#329=COLOUR_RGB('',0.509803950786591,0.509803950786591,0.588235318660736);
#330=AXIS2_PLACEMENT_3D('',#430,#431,#432);
#332=CARTESIAN_POINT('',(0.0,1.15338651888727E-014,-2.8421709430404E-014));
#333=DIRECTION('',(-0.0,0.0,-1.0));
#334=DIRECTION('',(-1.0,-1.63993783934854E-016,0.0));
#335=SURFACE_STYLE_FILL_AREA(#433);
#336=ORIENTED_EDGE('',*,*,#95,.T.);
#337=ORIENTED_EDGE('',*,*,#71,.F.);
#338=ORIENTED_EDGE('',*,*,#81,.T.);
#339=ORIENTED_EDGE('',*,*,#77,.T.);
#340=CARTESIAN_POINT('',(0.0,1.15338651888727E-014,2.8));
#341=DIRECTION('',(0.0,-0.0,1.0));
#342=DIRECTION('',(-1.0,-1.63993783934854E-016,0.0));
#343=SURFACE_STYLE_FILL_AREA(#434);
#344=SURFACE_STYLE_FILL_AREA(#435);
#345=ORIENTED_EDGE('',*,*,#95,.F.);
#346=ORIENTED_EDGE('',*,*,#115,.T.);
#347=ORIENTED_EDGE('',*,*,#81,.F.);
#348=ORIENTED_EDGE('',*,*,#123,.F.);
#349=CARTESIAN_POINT('',(0.0,1.15338651888727E-014,2.8));
#350=DIRECTION('',(0.0,-0.0,1.0));
#351=DIRECTION('',(-1.0,-1.63993783934854E-016,0.0));
#352=SURFACE_STYLE_FILL_AREA(#436);
#353=ORIENTED_EDGE('',*,*,#61,.F.);
#354=ORIENTED_EDGE('',*,*,#127,.F.);
#355=ORIENTED_EDGE('',*,*,#123,.T.);
#356=ORIENTED_EDGE('',*,*,#71,.T.);
#357=CARTESIAN_POINT('',(-11.125,9.82860084117503E-015,-1.4210854715202E-014));
#358=DIRECTION('',(0.0,0.0,-1.0));
#359=DIRECTION('',(1.0,1.22460635382238E-016,0.0));
#360=CARTESIAN_POINT('',(0.0,1.15338651888727E-014,0.0));
#361=DIRECTION('',(-0.0,0.0,-1.0));
#362=DIRECTION('',(-1.0,-1.63993783934854E-016,0.0));
#363=SURFACE_STYLE_FILL_AREA(#437);
#364=ORIENTED_EDGE('',*,*,#121,.F.);
#365=ORIENTED_EDGE('',*,*,#109,.F.);
#366=ORIENTED_EDGE('',*,*,#105,.F.);
#367=ORIENTED_EDGE('',*,*,#83,.T.);
#368=CARTESIAN_POINT('',(0.0,1.15338651888727E-014,4.40199819143149));
#369=DIRECTION('',(0.0,-0.0,1.0));
#370=DIRECTION('',(-1.0,-1.63993783934854E-016,0.0));
#371=CARTESIAN_POINT('',(0.0,1.15338651888727E-014,5.59999999999999));
#372=DIRECTION('',(-0.0,0.0,-1.0));
#373=DIRECTION('',(-1.0,-1.63993783934854E-016,0.0));
#374=DIRECTION('',(-0.0,-0.0,1.0));
#375=CARTESIAN_POINT('',(0.0,1.15338651888727E-014,3.20399638286298));
#376=DIRECTION('',(-0.0,0.0,-1.0));
#377=DIRECTION('',(-1.0,-1.63993783934854E-016,0.0));
#378=CARTESIAN_POINT('',(0.0,1.15338651888727E-014,5.59999999999999));
#379=DIRECTION('',(-0.0,0.0,-1.0));
#380=DIRECTION('',(-1.0,-1.63993783934854E-016,0.0));
#381=SURFACE_STYLE_FILL_AREA(#438);
#382=ORIENTED_EDGE('',*,*,#99,.F.);
#383=ORIENTED_EDGE('',*,*,#83,.F.);
#384=ORIENTED_EDGE('',*,*,#117,.F.);
#385=ORIENTED_EDGE('',*,*,#127,.T.);
#386=CARTESIAN_POINT('',(0.0,1.15338651888727E-014,1.60199819143148));
#387=DIRECTION('',(0.0,-0.0,1.0));
#388=DIRECTION('',(-1.0,-1.63993783934854E-016,0.0));
#389=DIRECTION('',(0.0,0.0,-1.0));
#390=DIRECTION('',(0.0,0.0,-1.0));
#391=SURFACE_STYLE_FILL_AREA(#439);
#392=ORIENTED_EDGE('',*,*,#115,.F.);
#393=ORIENTED_EDGE('',*,*,#77,.F.);
#394=ORIENTED_EDGE('',*,*,#91,.T.);
#395=ORIENTED_EDGE('',*,*,#109,.T.);
#396=CARTESIAN_POINT('',(-13.2,9.91738480182715E-015,5.59999999999999));
#397=DIRECTION('',(0.0,0.0,1.0));
#398=DIRECTION('',(-1.0,-1.22460635382238E-016,0.0));
#399=CARTESIAN_POINT('',(0.0,1.15338651888727E-014,3.20399638286298));
#400=DIRECTION('',(-0.0,0.0,-1.0));
#401=DIRECTION('',(-1.0,-1.63993783934854E-016,0.0));
#402=DIRECTION('',(0.866025403784435,2.4807680415492E-016,0.500000000000007));
#403=SURFACE_STYLE_FILL_AREA(#440);
#404=ORIENTED_EDGE('',*,*,#121,.T.);
#405=ORIENTED_EDGE('',*,*,#103,.T.);
#406=ORIENTED_EDGE('',*,*,#105,.T.);
#407=ORIENTED_EDGE('',*,*,#91,.F.);
#408=CARTESIAN_POINT('',(0.0,1.15338651888727E-014,4.40199819143149));
#409=DIRECTION('',(0.0,-0.0,1.0));
#410=DIRECTION('',(-1.0,-1.63993783934854E-016,0.0));
#411=CARTESIAN_POINT('',(0.0,1.15338651888727E-014,5.59999999999999));
#412=DIRECTION('',(-0.0,0.0,-1.0));
#413=DIRECTION('',(-1.0,-1.63993783934854E-016,0.0));
#414=CARTESIAN_POINT('',(0.0,1.15338651888727E-014,5.59999999999999));
#415=DIRECTION('',(-0.0,0.0,-1.0));
#416=DIRECTION('',(-1.0,-1.63993783934854E-016,0.0));
#417=DIRECTION('',(0.0,0.0,1.0));
#418=DIRECTION('',(0.866025403784435,2.4807680415492E-016,-0.500000000000007));
#419=CARTESIAN_POINT('',(0.0,1.15338651888727E-014,0.0));
#420=DIRECTION('',(-0.0,0.0,-1.0));
#421=DIRECTION('',(-1.0,-1.63993783934854E-016,0.0));
#422=SURFACE_STYLE_FILL_AREA(#441);
#423=ORIENTED_EDGE('',*,*,#99,.T.);
#424=ORIENTED_EDGE('',*,*,#61,.T.);
#425=ORIENTED_EDGE('',*,*,#117,.T.);
#426=ORIENTED_EDGE('',*,*,#103,.F.);
#427=CARTESIAN_POINT('',(0.0,1.15338651888727E-014,1.60199819143148));
#428=DIRECTION('',(0.0,-0.0,1.0));
#429=DIRECTION('',(-1.0,-1.63993783934854E-016,0.0));
#430=CARTESIAN_POINT('',(0.0,1.15338651888727E-014,-2.8421709430404E-014));
#431=DIRECTION('',(-0.0,0.0,-1.0));
#432=DIRECTION('',(-1.0,-1.63993783934854E-016,0.0));
#433=FILL_AREA_STYLE('',(#442));
#434=FILL_AREA_STYLE('',(#443));
#435=FILL_AREA_STYLE('',(#444));
#436=FILL_AREA_STYLE('',(#445));
#437=FILL_AREA_STYLE('',(#446));
#438=FILL_AREA_STYLE('',(#447));
#439=FILL_AREA_STYLE('',(#448));
#440=FILL_AREA_STYLE('',(#449));
#441=FILL_AREA_STYLE('',(#450));
#442=FILL_AREA_STYLE_COLOUR('',#451);
#443=FILL_AREA_STYLE_COLOUR('',#452);
#444=FILL_AREA_STYLE_COLOUR('',#453);
#445=FILL_AREA_STYLE_COLOUR('',#454);
#446=FILL_AREA_STYLE_COLOUR('',#455);
#447=FILL_AREA_STYLE_COLOUR('',#456);
#448=FILL_AREA_STYLE_COLOUR('',#457);
#449=FILL_AREA_STYLE_COLOUR('',#458);
#450=FILL_AREA_STYLE_COLOUR('',#459);
#451=COLOUR_RGB('',0.509803950786591,0.509803950786591,0.588235318660736);
#452=COLOUR_RGB('',0.509803950786591,0.509803950786591,0.588235318660736);
#453=COLOUR_RGB('',0.509803950786591,0.509803950786591,0.588235318660736);
#454=COLOUR_RGB('',0.509803950786591,0.509803950786591,0.588235318660736);
#455=COLOUR_RGB('',0.509803950786591,0.509803950786591,0.588235318660736);
#456=COLOUR_RGB('',0.509803950786591,0.509803950786591,0.588235318660736);
#457=COLOUR_RGB('',0.509803950786591,0.509803950786591,0.588235318660736);
#458=COLOUR_RGB('',0.509803950786591,0.509803950786591,0.588235318660736);
#459=COLOUR_RGB('',0.509803950786591,0.509803950786591,0.588235318660736);
ENDSEC;
END-ISO-10303-21;
