ISO-10303-21;
HEADER;
FILE_DESCRIPTION(('STEP AP214'),'1');
FILE_NAME(' ','  ',('TraceParts'),('TraceParts S.A.'),'XStep 1.0',' ',' ');
FILE_SCHEMA(('automotive_design'));
ENDSEC;
DATA;
#1=MECHANICAL_DESIGN_GEOMETRIC_PRESENTATION_REPRESENTATION(' ',(#10,#11,#12,#13,#14,#15,#16,#17,#18,#19,#20,#21,#22,#23,#24,#25,#26,#27,#28,#29,#30,#31,#32,#33,#34,#35,#36,#37,#38,#39,#40,#41,#42,#43,#44),#6);
#2=PRODUCT_DEFINITION_CONTEXT('',#45,'design');
#3=APPLICATION_PROTOCOL_DEFINITION('INTERNATIONAL STANDARD','automotive_design',1994,#45);
#4=PRODUCT_CATEGORY_RELATIONSHIP('NONE','NONE',#46,#47);
#5=SHAPE_DEFINITION_REPRESENTATION(#48,#49);
#6= (GEOMETRIC_REPRESENTATION_CONTEXT(3)GLOBAL_UNCERTAINTY_ASSIGNED_CONTEXT((#52))GLOBAL_UNIT_ASSIGNED_CONTEXT((#54,#55,#56))REPRESENTATION_CONTEXT('NONE','WORKSPACE'));
#10=STYLED_ITEM('',(#58),#59);
#11=STYLED_ITEM('',(#60),#61);
#12=STYLED_ITEM('',(#62),#63);
#13=STYLED_ITEM('',(#64),#65);
#14=STYLED_ITEM('',(#66),#67);
#15=STYLED_ITEM('',(#68),#69);
#16=STYLED_ITEM('',(#70),#71);
#17=STYLED_ITEM('',(#72),#73);
#18=STYLED_ITEM('',(#74),#75);
#19=STYLED_ITEM('',(#76),#77);
#20=STYLED_ITEM('',(#78),#79);
#21=STYLED_ITEM('',(#80),#81);
#22=STYLED_ITEM('',(#82),#83);
#23=STYLED_ITEM('',(#84),#85);
#24=STYLED_ITEM('',(#86),#87);
#25=STYLED_ITEM('',(#88),#89);
#26=STYLED_ITEM('',(#90),#91);
#27=STYLED_ITEM('',(#92),#93);
#28=STYLED_ITEM('',(#94),#95);
#29=STYLED_ITEM('',(#96),#97);
#30=STYLED_ITEM('',(#98),#99);
#31=STYLED_ITEM('',(#100),#101);
#32=STYLED_ITEM('',(#102),#103);
#33=STYLED_ITEM('',(#104),#105);
#34=STYLED_ITEM('',(#106),#107);
#35=STYLED_ITEM('',(#108),#109);
#36=STYLED_ITEM('',(#110),#111);
#37=STYLED_ITEM('',(#112),#113);
#38=STYLED_ITEM('',(#114),#115);
#39=STYLED_ITEM('',(#116),#117);
#40=STYLED_ITEM('',(#118),#119);
#41=STYLED_ITEM('',(#120),#121);
#42=STYLED_ITEM('',(#122),#123);
#43=STYLED_ITEM('',(#124),#125);
#44=STYLED_ITEM('',(#126),#127);
#45=APPLICATION_CONTEXT(' ');
#46=PRODUCT_CATEGORY('part','NONE');
#47=PRODUCT_RELATED_PRODUCT_CATEGORY('detail',' ',(#128));
#48=PRODUCT_DEFINITION_SHAPE('NONE','NONE',#129);
#49=ADVANCED_BREP_SHAPE_REPRESENTATION('1',(#99,#130),#6);
#52=UNCERTAINTY_MEASURE_WITH_UNIT(LENGTH_MEASURE(1.0E-006),#54,'','');
#54= (CONVERSION_BASED_UNIT('MILLIMETRE',#133)LENGTH_UNIT()NAMED_UNIT(#136));
#55= (NAMED_UNIT(#138)PLANE_ANGLE_UNIT()SI_UNIT($,.RADIAN.));
#56= (NAMED_UNIT(#138)SOLID_ANGLE_UNIT()SI_UNIT($,.STERADIAN.));
#58=PRESENTATION_STYLE_ASSIGNMENT((#144));
#59=VERTEX_POINT('',#145);
#60=PRESENTATION_STYLE_ASSIGNMENT((#146));
#61=EDGE_CURVE('',#83,#119,#147,.T.);
#62=PRESENTATION_STYLE_ASSIGNMENT((#148));
#63=EDGE_CURVE('',#77,#59,#149,.T.);
#64=PRESENTATION_STYLE_ASSIGNMENT((#150));
#65=EDGE_CURVE('',#59,#83,#151,.T.);
#66=PRESENTATION_STYLE_ASSIGNMENT((#152));
#67=EDGE_CURVE('',#117,#93,#153,.T.);
#68=PRESENTATION_STYLE_ASSIGNMENT((#154));
#69=ADVANCED_FACE('',(#155),#156,.F.);
#70=PRESENTATION_STYLE_ASSIGNMENT((#157));
#71=ADVANCED_FACE('',(#158),#159,.F.);
#72=PRESENTATION_STYLE_ASSIGNMENT((#160));
#73=EDGE_CURVE('',#115,#97,#161,.T.);
#74=PRESENTATION_STYLE_ASSIGNMENT((#162));
#75=ADVANCED_FACE('',(#163,#164),#165,.T.);
#76=PRESENTATION_STYLE_ASSIGNMENT((#166));
#77=VERTEX_POINT('',#167);
#78=PRESENTATION_STYLE_ASSIGNMENT((#168));
#79=ADVANCED_FACE('',(#169,#170),#171,.T.);
#80=PRESENTATION_STYLE_ASSIGNMENT((#172));
#81=ADVANCED_FACE('',(#173),#174,.T.);
#82=PRESENTATION_STYLE_ASSIGNMENT((#175));
#83=VERTEX_POINT('',#176);
#84=PRESENTATION_STYLE_ASSIGNMENT((#177));
#85=EDGE_CURVE('',#127,#107,#178,.T.);
#86=PRESENTATION_STYLE_ASSIGNMENT((#179));
#87=EDGE_CURVE('',#117,#115,#180,.T.);
#88=PRESENTATION_STYLE_ASSIGNMENT((#181));
#89=ADVANCED_FACE('',(#182),#183,.T.);
#90=PRESENTATION_STYLE_ASSIGNMENT((#184));
#91=ADVANCED_FACE('',(#185),#186,.F.);
#92=PRESENTATION_STYLE_ASSIGNMENT((#187));
#93=VERTEX_POINT('',#188);
#94=PRESENTATION_STYLE_ASSIGNMENT((#189));
#95=EDGE_CURVE('',#59,#77,#190,.T.);
#96=PRESENTATION_STYLE_ASSIGNMENT((#191));
#97=VERTEX_POINT('',#192);
#98=PRESENTATION_STYLE_ASSIGNMENT((#193));
#99=MANIFOLD_SOLID_BREP('1',#194);
#100=PRESENTATION_STYLE_ASSIGNMENT((#195));
#101=EDGE_CURVE('',#77,#107,#196,.T.);
#102=PRESENTATION_STYLE_ASSIGNMENT((#197));
#103=EDGE_CURVE('',#93,#117,#198,.T.);
#104=PRESENTATION_STYLE_ASSIGNMENT((#199));
#105=EDGE_CURVE('',#97,#93,#200,.T.);
#106=PRESENTATION_STYLE_ASSIGNMENT((#201));
#107=VERTEX_POINT('',#202);
#108=PRESENTATION_STYLE_ASSIGNMENT((#203));
#109=EDGE_CURVE('',#107,#127,#204,.T.);
#110=PRESENTATION_STYLE_ASSIGNMENT((#205));
#111=ADVANCED_FACE('',(#206),#207,.F.);
#112=PRESENTATION_STYLE_ASSIGNMENT((#208));
#113=EDGE_CURVE('',#97,#115,#209,.T.);
#114=PRESENTATION_STYLE_ASSIGNMENT((#210));
#115=VERTEX_POINT('',#211);
#116=PRESENTATION_STYLE_ASSIGNMENT((#212));
#117=VERTEX_POINT('',#213);
#118=PRESENTATION_STYLE_ASSIGNMENT((#214));
#119=VERTEX_POINT('',#215);
#120=PRESENTATION_STYLE_ASSIGNMENT((#216));
#121=EDGE_CURVE('',#127,#59,#217,.T.);
#122=PRESENTATION_STYLE_ASSIGNMENT((#218));
#123=EDGE_CURVE('',#119,#83,#219,.T.);
#124=PRESENTATION_STYLE_ASSIGNMENT((#220));
#125=EDGE_CURVE('',#119,#77,#221,.T.);
#126=PRESENTATION_STYLE_ASSIGNMENT((#222));
#127=VERTEX_POINT('',#223);
#128=PRODUCT('1','1','PART-1-DESC',(#224));
#129=PRODUCT_DEFINITION('NONE','NONE',#225,#2);
#130=AXIS2_PLACEMENT_3D('',#226,#227,#228);
#133=LENGTH_MEASURE_WITH_UNIT(LENGTH_MEASURE(1.0),#229);
#136=DIMENSIONAL_EXPONENTS(1.0,0.0,0.0,0.0,0.0,0.0,0.0);
#138=DIMENSIONAL_EXPONENTS(0.0,0.0,0.0,0.0,0.0,0.0,0.0);
#144=POINT_STYLE(' ',#230,POSITIVE_LENGTH_MEASURE(1.0E-006),#231);
#145=CARTESIAN_POINT('',(-7.09999999999997,1.03904309009592E-014,3.32568421934999));
#146=CURVE_STYLE('',#232,POSITIVE_LENGTH_MEASURE(1.0E-006),#233);
#147=CIRCLE('',#234,7.09999999999999);
#148=CURVE_STYLE('',#235,POSITIVE_LENGTH_MEASURE(1.0E-006),#236);
#149=CIRCLE('',#237,7.09999999999999);
#150=CURVE_STYLE('',#238,POSITIVE_LENGTH_MEASURE(1.0E-006),#239);
#151=LINE('',#240,#241);
#152=CURVE_STYLE('',#242,POSITIVE_LENGTH_MEASURE(1.0E-006),#243);
#153=CIRCLE('',#244,12.0);
#154=SURFACE_STYLE_USAGE(.BOTH.,#245);
#155=FACE_OUTER_BOUND('',#246,.T.);
#156=CONICAL_SURFACE('',#247,8.55000000000001,1.04719755119659);
#157=SURFACE_STYLE_USAGE(.BOTH.,#248);
#158=FACE_OUTER_BOUND('',#249,.T.);
#159=CONICAL_SURFACE('',#250,8.55000000000001,1.04719755119659);
#160=CURVE_STYLE('',#251,POSITIVE_LENGTH_MEASURE(1.0E-006),#252);
#161=CIRCLE('',#253,12.0);
#162=SURFACE_STYLE_USAGE(.BOTH.,#254);
#163=FACE_BOUND('',#255,.T.);
#164=FACE_OUTER_BOUND('',#256,.T.);
#165=PLANE('',#257);
#166=POINT_STYLE(' ',#258,POSITIVE_LENGTH_MEASURE(1.0E-006),#259);
#167=CARTESIAN_POINT('',(7.10000000000002,1.34072624419983E-014,3.32568421934999));
#168=SURFACE_STYLE_USAGE(.BOTH.,#260);
#169=FACE_OUTER_BOUND('',#261,.T.);
#170=FACE_BOUND('',#262,.T.);
#171=PLANE('',#263);
#172=SURFACE_STYLE_USAGE(.BOTH.,#264);
#173=FACE_OUTER_BOUND('',#265,.T.);
#174=CYLINDRICAL_SURFACE('',#266,12.0);
#175=POINT_STYLE(' ',#267,POSITIVE_LENGTH_MEASURE(1.0E-006),#268);
#176=CARTESIAN_POINT('',(-7.09999999999997,1.01867981996681E-014,-2.8421709430404E-014));
#177=CURVE_STYLE('',#269,POSITIVE_LENGTH_MEASURE(1.0E-006),#270);
#178=CIRCLE('',#271,10.0);
#179=CURVE_STYLE('',#272,POSITIVE_LENGTH_MEASURE(1.0E-006),#273);
#180=LINE('',#274,#275);
#181=SURFACE_STYLE_USAGE(.BOTH.,#276);
#182=FACE_OUTER_BOUND('',#277,.T.);
#183=CYLINDRICAL_SURFACE('',#278,12.0);
#184=SURFACE_STYLE_USAGE(.BOTH.,#279);
#185=FACE_OUTER_BOUND('',#280,.T.);
#186=CYLINDRICAL_SURFACE('',#281,7.09999999999999);
#187=POINT_STYLE(' ',#282,POSITIVE_LENGTH_MEASURE(1.0E-006),#283);
#188=CARTESIAN_POINT('',(-12.0,9.58674108629511E-015,-2.8421709430404E-014));
#189=CURVE_STYLE('',#284,POSITIVE_LENGTH_MEASURE(1.0E-006),#285);
#190=CIRCLE('',#286,7.09999999999999);
#191=POINT_STYLE(' ',#287,POSITIVE_LENGTH_MEASURE(1.0E-006),#288);
#192=CARTESIAN_POINT('',(-12.0,9.8928926747507E-015,4.99999999999997));
#193=SURFACE_STYLE_USAGE(.BOTH.,#289);
#194=CLOSED_SHELL('',(#91,#89,#69,#71,#79,#81,#75,#111));
#195=CURVE_STYLE('',#290,POSITIVE_LENGTH_MEASURE(1.0E-006),#291);
#196=LINE('',#292,#293);
#197=CURVE_STYLE('',#294,POSITIVE_LENGTH_MEASURE(1.0E-006),#295);
#198=CIRCLE('',#296,12.0);
#199=CURVE_STYLE('',#297,POSITIVE_LENGTH_MEASURE(1.0E-006),#298);
#200=LINE('',#299,#300);
#201=POINT_STYLE(' ',#301,POSITIVE_LENGTH_MEASURE(1.0E-006),#302);
#202=CARTESIAN_POINT('',(10.0000000000001,1.42424796551978E-014,4.99999999999997));
#203=CURVE_STYLE('',#303,POSITIVE_LENGTH_MEASURE(1.0E-006),#304);
#204=CIRCLE('',#305,10.0);
#205=SURFACE_STYLE_USAGE(.BOTH.,#306);
#206=FACE_OUTER_BOUND('',#307,.T.);
#207=CYLINDRICAL_SURFACE('',#308,7.09999999999999);
#208=CURVE_STYLE('',#309,POSITIVE_LENGTH_MEASURE(1.0E-006),#310);
#209=CIRCLE('',#311,12.0);
#210=POINT_STYLE(' ',#312,POSITIVE_LENGTH_MEASURE(1.0E-006),#313);
#211=CARTESIAN_POINT('',(12.0000000000001,1.48184915263699E-014,4.99999999999997));
#212=POINT_STYLE(' ',#314,POSITIVE_LENGTH_MEASURE(1.0E-006),#315);
#213=CARTESIAN_POINT('',(12.0000000000001,1.48184915263699E-014,-2.8421709430404E-014));
#214=POINT_STYLE(' ',#316,POSITIVE_LENGTH_MEASURE(1.0E-006),#317);
#215=CARTESIAN_POINT('',(7.10000000000002,1.34072624419983E-014,-2.8421709430404E-014));
#216=CURVE_STYLE('',#318,POSITIVE_LENGTH_MEASURE(1.0E-006),#319);
#217=LINE('',#320,#321);
#218=CURVE_STYLE('',#322,POSITIVE_LENGTH_MEASURE(1.0E-006),#323);
#219=CIRCLE('',#324,7.09999999999999);
#220=CURVE_STYLE('',#325,POSITIVE_LENGTH_MEASURE(1.0E-006),#326);
#221=LINE('',#327,#328);
#222=POINT_STYLE(' ',#329,POSITIVE_LENGTH_MEASURE(1.0E-006),#330);
#223=CARTESIAN_POINT('',(-10.0,1.01378139455152E-014,4.99999999999997));
#224=PRODUCT_CONTEXT('',#45,'mechanical');
#225=PRODUCT_DEFINITION_FORMATION_WITH_SPECIFIED_SOURCE(' ','NONE',#128,.NOT_KNOWN.);
#226=CARTESIAN_POINT('',(0.0,0.0,0.0));
#227=DIRECTION('',(0.0,0.0,1.0));
#228=DIRECTION('',(1.0,0.0,0.0));
#229= (NAMED_UNIT(#136)LENGTH_UNIT()SI_UNIT(.MILLI.,.METRE.));
#230=PRE_DEFINED_MARKER('');
#231=COLOUR_RGB('',0.509803950786591,0.509803950786591,0.588235318660736);
#232=DRAUGHTING_PRE_DEFINED_CURVE_FONT('continuous');
#233=COLOUR_RGB('',0.509803950786591,0.509803950786591,0.588235318660736);
#234=AXIS2_PLACEMENT_3D('',#332,#333,#334);
#235=DRAUGHTING_PRE_DEFINED_CURVE_FONT('continuous');
#236=COLOUR_RGB('',0.509803950786591,0.509803950786591,0.588235318660736);
#237=AXIS2_PLACEMENT_3D('',#335,#336,#337);
#238=DRAUGHTING_PRE_DEFINED_CURVE_FONT('continuous');
#239=COLOUR_RGB('',0.509803950786591,0.509803950786591,0.588235318660736);
#240=CARTESIAN_POINT('',(-7.09999999999997,9.31757815667678E-015,1.66284210967498));
#241=VECTOR('',#338,1.0);
#242=DRAUGHTING_PRE_DEFINED_CURVE_FONT('continuous');
#243=COLOUR_RGB('',0.509803950786591,0.509803950786591,0.588235318660736);
#244=AXIS2_PLACEMENT_3D('',#339,#340,#341);
#245=SURFACE_SIDE_STYLE('',(#342));
#246=EDGE_LOOP('',(#343,#344,#345,#346));
#247=AXIS2_PLACEMENT_3D('',#347,#348,#349);
#248=SURFACE_SIDE_STYLE('',(#350));
#249=EDGE_LOOP('',(#351,#352,#353,#354));
#250=AXIS2_PLACEMENT_3D('',#355,#356,#357);
#251=DRAUGHTING_PRE_DEFINED_CURVE_FONT('continuous');
#252=COLOUR_RGB('',0.509803950786591,0.509803950786591,0.588235318660736);
#253=AXIS2_PLACEMENT_3D('',#358,#359,#360);
#254=SURFACE_SIDE_STYLE('',(#361));
#255=EDGE_LOOP('',(#362,#363));
#256=EDGE_LOOP('',(#364,#365));
#257=AXIS2_PLACEMENT_3D('',#366,#367,#368);
#258=PRE_DEFINED_MARKER('');
#259=COLOUR_RGB('',0.509803950786591,0.509803950786591,0.588235318660736);
#260=SURFACE_SIDE_STYLE('',(#369));
#261=EDGE_LOOP('',(#370,#371));
#262=EDGE_LOOP('',(#372,#373));
#263=AXIS2_PLACEMENT_3D('',#374,#375,#376);
#264=SURFACE_SIDE_STYLE('',(#377));
#265=EDGE_LOOP('',(#378,#379,#380,#381));
#266=AXIS2_PLACEMENT_3D('',#382,#383,#384);
#267=PRE_DEFINED_MARKER('');
#268=COLOUR_RGB('',0.509803950786591,0.509803950786591,0.588235318660736);
#269=DRAUGHTING_PRE_DEFINED_CURVE_FONT('continuous');
#270=COLOUR_RGB('',0.509803950786591,0.509803950786591,0.588235318660736);
#271=AXIS2_PLACEMENT_3D('',#385,#386,#387);
#272=DRAUGHTING_PRE_DEFINED_CURVE_FONT('continuous');
#273=COLOUR_RGB('',0.509803950786591,0.509803950786591,0.588235318660736);
#274=CARTESIAN_POINT('',(12.0000000000001,1.48184915263699E-014,2.49999999999997));
#275=VECTOR('',#388,1.0);
#276=SURFACE_SIDE_STYLE('',(#389));
#277=EDGE_LOOP('',(#390,#391,#392,#393));
#278=AXIS2_PLACEMENT_3D('',#394,#395,#396);
#279=SURFACE_SIDE_STYLE('',(#397));
#280=EDGE_LOOP('',(#398,#399,#400,#401));
#281=AXIS2_PLACEMENT_3D('',#402,#403,#404);
#282=PRE_DEFINED_MARKER('');
#283=COLOUR_RGB('',0.509803950786591,0.509803950786591,0.588235318660736);
#284=DRAUGHTING_PRE_DEFINED_CURVE_FONT('continuous');
#285=COLOUR_RGB('',0.509803950786591,0.509803950786591,0.588235318660736);
#286=AXIS2_PLACEMENT_3D('',#405,#406,#407);
#287=PRE_DEFINED_MARKER('');
#288=COLOUR_RGB('',0.509803950786591,0.509803950786591,0.588235318660736);
#289=SURFACE_SIDE_STYLE('',(#408));
#290=DRAUGHTING_PRE_DEFINED_CURVE_FONT('continuous');
#291=COLOUR_RGB('',0.509803950786591,0.509803950786591,0.588235318660736);
#292=CARTESIAN_POINT('',(8.55000000000004,1.38248710485981E-014,4.16284210967498));
#293=VECTOR('',#409,1.0);
#294=DRAUGHTING_PRE_DEFINED_CURVE_FONT('continuous');
#295=COLOUR_RGB('',0.509803950786591,0.509803950786591,0.588235318660736);
#296=AXIS2_PLACEMENT_3D('',#410,#411,#412);
#297=DRAUGHTING_PRE_DEFINED_CURVE_FONT('continuous');
#298=COLOUR_RGB('',0.509803950786591,0.509803950786591,0.588235318660736);
#299=CARTESIAN_POINT('',(-12.0,7.90634907230524E-015,2.49999999999997));
#300=VECTOR('',#413,1.0);
#301=PRE_DEFINED_MARKER('');
#302=COLOUR_RGB('',0.509803950786591,0.509803950786591,0.588235318660736);
#303=DRAUGHTING_PRE_DEFINED_CURVE_FONT('continuous');
#304=COLOUR_RGB('',0.509803950786591,0.509803950786591,0.588235318660736);
#305=AXIS2_PLACEMENT_3D('',#414,#415,#416);
#306=SURFACE_SIDE_STYLE('',(#417));
#307=EDGE_LOOP('',(#418,#419,#420,#421));
#308=AXIS2_PLACEMENT_3D('',#422,#423,#424);
#309=DRAUGHTING_PRE_DEFINED_CURVE_FONT('continuous');
#310=COLOUR_RGB('',0.509803950786591,0.509803950786591,0.588235318660736);
#311=AXIS2_PLACEMENT_3D('',#425,#426,#427);
#312=PRE_DEFINED_MARKER('');
#313=COLOUR_RGB('',0.509803950786591,0.509803950786591,0.588235318660736);
#314=PRE_DEFINED_MARKER('');
#315=COLOUR_RGB('',0.509803950786591,0.509803950786591,0.588235318660736);
#316=PRE_DEFINED_MARKER('');
#317=COLOUR_RGB('',0.509803950786591,0.509803950786591,0.588235318660736);
#318=DRAUGHTING_PRE_DEFINED_CURVE_FONT('continuous');
#319=COLOUR_RGB('',0.509803950786591,0.509803950786591,0.588235318660736);
#320=CARTESIAN_POINT('',(-8.54999999999998,8.89996955007704E-015,4.16284210967498));
#321=VECTOR('',#428,1.0);
#322=DRAUGHTING_PRE_DEFINED_CURVE_FONT('continuous');
#323=COLOUR_RGB('',0.509803950786591,0.509803950786591,0.588235318660736);
#324=AXIS2_PLACEMENT_3D('',#429,#430,#431);
#325=DRAUGHTING_PRE_DEFINED_CURVE_FONT('continuous');
#326=COLOUR_RGB('',0.509803950786591,0.509803950786591,0.588235318660736);
#327=CARTESIAN_POINT('',(7.10000000000002,1.34072624419983E-014,1.66284210967498));
#328=VECTOR('',#432,1.0);
#329=PRE_DEFINED_MARKER('');
#330=COLOUR_RGB('',0.509803950786591,0.509803950786591,0.588235318660736);
#332=CARTESIAN_POINT('',(2.8421709430404E-014,1.13624202993376E-014,-2.8421709430404E-014));
#333=DIRECTION('',(-0.0,0.0,-1.0));
#334=DIRECTION('',(-1.0,-1.65545300203788E-016,0.0));
#335=CARTESIAN_POINT('',(2.8421709430404E-014,1.13624202993376E-014,3.32568421934999));
#336=DIRECTION('',(-0.0,0.0,-1.0));
#337=DIRECTION('',(-1.0,-1.65545300203788E-016,0.0));
#338=DIRECTION('',(0.0,0.0,-1.0));
#339=CARTESIAN_POINT('',(2.8421709430404E-014,1.13624202993376E-014,-2.8421709430404E-014));
#340=DIRECTION('',(-0.0,0.0,-1.0));
#341=DIRECTION('',(-1.0,-1.65545300203788E-016,0.0));
#342=SURFACE_STYLE_FILL_AREA(#433);
#343=ORIENTED_EDGE('',*,*,#121,.F.);
#344=ORIENTED_EDGE('',*,*,#109,.F.);
#345=ORIENTED_EDGE('',*,*,#101,.F.);
#346=ORIENTED_EDGE('',*,*,#63,.T.);
#347=CARTESIAN_POINT('',(2.8421709430404E-014,1.13624202993376E-014,4.16284210967498));
#348=DIRECTION('',(0.0,-0.0,1.0));
#349=DIRECTION('',(-1.0,-1.65545300203788E-016,0.0));
#350=SURFACE_STYLE_FILL_AREA(#434);
#351=ORIENTED_EDGE('',*,*,#121,.T.);
#352=ORIENTED_EDGE('',*,*,#95,.T.);
#353=ORIENTED_EDGE('',*,*,#101,.T.);
#354=ORIENTED_EDGE('',*,*,#85,.F.);
#355=CARTESIAN_POINT('',(2.8421709430404E-014,1.13624202993376E-014,4.16284210967498));
#356=DIRECTION('',(0.0,-0.0,1.0));
#357=DIRECTION('',(-1.0,-1.65545300203788E-016,0.0));
#358=CARTESIAN_POINT('',(2.8421709430404E-014,1.13624202993376E-014,4.99999999999997));
#359=DIRECTION('',(-0.0,0.0,-1.0));
#360=DIRECTION('',(-1.0,-1.65545300203788E-016,0.0));
#361=SURFACE_STYLE_FILL_AREA(#435);
#362=ORIENTED_EDGE('',*,*,#61,.F.);
#363=ORIENTED_EDGE('',*,*,#123,.F.);
#364=ORIENTED_EDGE('',*,*,#103,.T.);
#365=ORIENTED_EDGE('',*,*,#67,.T.);
#366=CARTESIAN_POINT('',(-9.54999999999998,9.88676964298159E-015,-2.8421709430404E-014));
#367=DIRECTION('',(0.0,0.0,-1.0));
#368=DIRECTION('',(1.0,1.22460635382238E-016,0.0));
#369=SURFACE_STYLE_FILL_AREA(#436);
#370=ORIENTED_EDGE('',*,*,#113,.F.);
#371=ORIENTED_EDGE('',*,*,#73,.F.);
#372=ORIENTED_EDGE('',*,*,#85,.T.);
#373=ORIENTED_EDGE('',*,*,#109,.T.);
#374=CARTESIAN_POINT('',(-11.0,1.00153533101329E-014,4.99999999999997));
#375=DIRECTION('',(0.0,0.0,1.0));
#376=DIRECTION('',(-1.0,-1.22460635382238E-016,0.0));
#377=SURFACE_STYLE_FILL_AREA(#437);
#378=ORIENTED_EDGE('',*,*,#105,.T.);
#379=ORIENTED_EDGE('',*,*,#67,.F.);
#380=ORIENTED_EDGE('',*,*,#87,.T.);
#381=ORIENTED_EDGE('',*,*,#73,.T.);
#382=CARTESIAN_POINT('',(2.8421709430404E-014,1.13624202993376E-014,2.49999999999997));
#383=DIRECTION('',(0.0,-0.0,1.0));
#384=DIRECTION('',(-1.0,-1.65545300203788E-016,0.0));
#385=CARTESIAN_POINT('',(2.8421709430404E-014,1.13624202993376E-014,4.99999999999997));
#386=DIRECTION('',(-0.0,0.0,-1.0));
#387=DIRECTION('',(-1.0,-1.65545300203788E-016,0.0));
#388=DIRECTION('',(-0.0,-0.0,1.0));
#389=SURFACE_STYLE_FILL_AREA(#438);
#390=ORIENTED_EDGE('',*,*,#105,.F.);
#391=ORIENTED_EDGE('',*,*,#113,.T.);
#392=ORIENTED_EDGE('',*,*,#87,.F.);
#393=ORIENTED_EDGE('',*,*,#103,.F.);
#394=CARTESIAN_POINT('',(2.8421709430404E-014,1.13624202993376E-014,2.49999999999997));
#395=DIRECTION('',(0.0,-0.0,1.0));
#396=DIRECTION('',(-1.0,-1.65545300203788E-016,0.0));
#397=SURFACE_STYLE_FILL_AREA(#439);
#398=ORIENTED_EDGE('',*,*,#65,.F.);
#399=ORIENTED_EDGE('',*,*,#63,.F.);
#400=ORIENTED_EDGE('',*,*,#125,.F.);
#401=ORIENTED_EDGE('',*,*,#123,.T.);
#402=CARTESIAN_POINT('',(2.8421709430404E-014,1.13624202993376E-014,1.66284210967498));
#403=DIRECTION('',(0.0,-0.0,1.0));
#404=DIRECTION('',(-1.0,-1.65545300203788E-016,0.0));
#405=CARTESIAN_POINT('',(2.8421709430404E-014,1.13624202993376E-014,3.32568421934999));
#406=DIRECTION('',(-0.0,0.0,-1.0));
#407=DIRECTION('',(-1.0,-1.65545300203788E-016,0.0));
#408=SURFACE_STYLE_FILL_AREA(#440);
#409=DIRECTION('',(0.866025403784433,2.49420456658201E-016,0.500000000000009));
#410=CARTESIAN_POINT('',(2.8421709430404E-014,1.13624202993376E-014,-2.8421709430404E-014));
#411=DIRECTION('',(-0.0,0.0,-1.0));
#412=DIRECTION('',(-1.0,-1.65545300203788E-016,0.0));
#413=DIRECTION('',(0.0,0.0,-1.0));
#414=CARTESIAN_POINT('',(2.8421709430404E-014,1.13624202993376E-014,4.99999999999997));
#415=DIRECTION('',(-0.0,0.0,-1.0));
#416=DIRECTION('',(-1.0,-1.65545300203788E-016,0.0));
#417=SURFACE_STYLE_FILL_AREA(#441);
#418=ORIENTED_EDGE('',*,*,#65,.T.);
#419=ORIENTED_EDGE('',*,*,#61,.T.);
#420=ORIENTED_EDGE('',*,*,#125,.T.);
#421=ORIENTED_EDGE('',*,*,#95,.F.);
#422=CARTESIAN_POINT('',(2.8421709430404E-014,1.13624202993376E-014,1.66284210967498));
#423=DIRECTION('',(0.0,-0.0,1.0));
#424=DIRECTION('',(-1.0,-1.65545300203788E-016,0.0));
#425=CARTESIAN_POINT('',(2.8421709430404E-014,1.13624202993376E-014,4.99999999999997));
#426=DIRECTION('',(-0.0,0.0,-1.0));
#427=DIRECTION('',(-1.0,-1.65545300203788E-016,0.0));
#428=DIRECTION('',(0.866025403784433,2.49420456658201E-016,-0.500000000000009));
#429=CARTESIAN_POINT('',(2.8421709430404E-014,1.13624202993376E-014,-2.8421709430404E-014));
#430=DIRECTION('',(-0.0,0.0,-1.0));
#431=DIRECTION('',(-1.0,-1.65545300203788E-016,0.0));
#432=DIRECTION('',(0.0,0.0,1.0));
#433=FILL_AREA_STYLE('',(#442));
#434=FILL_AREA_STYLE('',(#443));
#435=FILL_AREA_STYLE('',(#444));
#436=FILL_AREA_STYLE('',(#445));
#437=FILL_AREA_STYLE('',(#446));
#438=FILL_AREA_STYLE('',(#447));
#439=FILL_AREA_STYLE('',(#448));
#440=FILL_AREA_STYLE('',(#449));
#441=FILL_AREA_STYLE('',(#450));
#442=FILL_AREA_STYLE_COLOUR('',#451);
#443=FILL_AREA_STYLE_COLOUR('',#452);
#444=FILL_AREA_STYLE_COLOUR('',#453);
#445=FILL_AREA_STYLE_COLOUR('',#454);
#446=FILL_AREA_STYLE_COLOUR('',#455);
#447=FILL_AREA_STYLE_COLOUR('',#456);
#448=FILL_AREA_STYLE_COLOUR('',#457);
#449=FILL_AREA_STYLE_COLOUR('',#458);
#450=FILL_AREA_STYLE_COLOUR('',#459);
#451=COLOUR_RGB('',0.509803950786591,0.509803950786591,0.588235318660736);
#452=COLOUR_RGB('',0.509803950786591,0.509803950786591,0.588235318660736);
#453=COLOUR_RGB('',0.509803950786591,0.509803950786591,0.588235318660736);
#454=COLOUR_RGB('',0.509803950786591,0.509803950786591,0.588235318660736);
#455=COLOUR_RGB('',0.509803950786591,0.509803950786591,0.588235318660736);
#456=COLOUR_RGB('',0.509803950786591,0.509803950786591,0.588235318660736);
#457=COLOUR_RGB('',0.509803950786591,0.509803950786591,0.588235318660736);
#458=COLOUR_RGB('',0.509803950786591,0.509803950786591,0.588235318660736);
#459=COLOUR_RGB('',0.509803950786591,0.509803950786591,0.588235318660736);
ENDSEC;
END-ISO-10303-21;
