ISO-10303-21;
HEADER;
FILE_DESCRIPTION(('STEP AP214'),'1');
FILE_NAME(' ','  ',('TraceParts'),('TraceParts S.A.'),'XStep 1.0',' ',' ');
FILE_SCHEMA(('automotive_design'));
ENDSEC;
DATA;
#1=MECHANICAL_DESIGN_GEOMETRIC_PRESENTATION_REPRESENTATION(' ',(#10,#11,#12,#13,#14,#15,#16,#17,#18,#19,#20,#21,#22,#23,#24,#25,#26,#27,#28,#29,#30,#31,#32,#33,#34,#35,#36,#37,#38,#39,#40,#41,#42,#43,#44),#6);
#2=PRODUCT_DEFINITION_CONTEXT('',#45,'design');
#3=APPLICATION_PROTOCOL_DEFINITION('INTERNATIONAL STANDARD','automotive_design',1994,#45);
#4=PRODUCT_CATEGORY_RELATIONSHIP('NONE','NONE',#46,#47);
#5=SHAPE_DEFINITION_REPRESENTATION(#48,#49);
#6= (GEOMETRIC_REPRESENTATION_CONTEXT(3)GLOBAL_UNCERTAINTY_ASSIGNED_CONTEXT((#52))GLOBAL_UNIT_ASSIGNED_CONTEXT((#54,#55,#56))REPRESENTATION_CONTEXT('NONE','WORKSPACE'));
#10=STYLED_ITEM('',(#58),#59);
#11=STYLED_ITEM('',(#60),#61);
#12=STYLED_ITEM('',(#62),#63);
#13=STYLED_ITEM('',(#64),#65);
#14=STYLED_ITEM('',(#66),#67);
#15=STYLED_ITEM('',(#68),#69);
#16=STYLED_ITEM('',(#70),#71);
#17=STYLED_ITEM('',(#72),#73);
#18=STYLED_ITEM('',(#74),#75);
#19=STYLED_ITEM('',(#76),#77);
#20=STYLED_ITEM('',(#78),#79);
#21=STYLED_ITEM('',(#80),#81);
#22=STYLED_ITEM('',(#82),#83);
#23=STYLED_ITEM('',(#84),#85);
#24=STYLED_ITEM('',(#86),#87);
#25=STYLED_ITEM('',(#88),#89);
#26=STYLED_ITEM('',(#90),#91);
#27=STYLED_ITEM('',(#92),#93);
#28=STYLED_ITEM('',(#94),#95);
#29=STYLED_ITEM('',(#96),#97);
#30=STYLED_ITEM('',(#98),#99);
#31=STYLED_ITEM('',(#100),#101);
#32=STYLED_ITEM('',(#102),#103);
#33=STYLED_ITEM('',(#104),#105);
#34=STYLED_ITEM('',(#106),#107);
#35=STYLED_ITEM('',(#108),#109);
#36=STYLED_ITEM('',(#110),#111);
#37=STYLED_ITEM('',(#112),#113);
#38=STYLED_ITEM('',(#114),#115);
#39=STYLED_ITEM('',(#116),#117);
#40=STYLED_ITEM('',(#118),#119);
#41=STYLED_ITEM('',(#120),#121);
#42=STYLED_ITEM('',(#122),#123);
#43=STYLED_ITEM('',(#124),#125);
#44=STYLED_ITEM('',(#126),#127);
#45=APPLICATION_CONTEXT(' ');
#46=PRODUCT_CATEGORY('part','NONE');
#47=PRODUCT_RELATED_PRODUCT_CATEGORY('detail',' ',(#128));
#48=PRODUCT_DEFINITION_SHAPE('NONE','NONE',#129);
#49=ADVANCED_BREP_SHAPE_REPRESENTATION('1',(#113,#130),#6);
#52=UNCERTAINTY_MEASURE_WITH_UNIT(LENGTH_MEASURE(1.0E-006),#54,'','');
#54= (CONVERSION_BASED_UNIT('MILLIMETRE',#133)LENGTH_UNIT()NAMED_UNIT(#136));
#55= (NAMED_UNIT(#138)PLANE_ANGLE_UNIT()SI_UNIT($,.RADIAN.));
#56= (NAMED_UNIT(#138)SOLID_ANGLE_UNIT()SI_UNIT($,.STERADIAN.));
#58=PRESENTATION_STYLE_ASSIGNMENT((#144));
#59=EDGE_CURVE('',#105,#79,#145,.T.);
#60=PRESENTATION_STYLE_ASSIGNMENT((#146));
#61=EDGE_CURVE('',#69,#105,#147,.T.);
#62=PRESENTATION_STYLE_ASSIGNMENT((#148));
#63=EDGE_CURVE('',#107,#69,#149,.T.);
#64=PRESENTATION_STYLE_ASSIGNMENT((#150));
#65=VERTEX_POINT('',#151);
#66=PRESENTATION_STYLE_ASSIGNMENT((#152));
#67=EDGE_CURVE('',#65,#115,#153,.T.);
#68=PRESENTATION_STYLE_ASSIGNMENT((#154));
#69=VERTEX_POINT('',#155);
#70=PRESENTATION_STYLE_ASSIGNMENT((#156));
#71=VERTEX_POINT('',#157);
#72=PRESENTATION_STYLE_ASSIGNMENT((#158));
#73=VERTEX_POINT('',#159);
#74=PRESENTATION_STYLE_ASSIGNMENT((#160));
#75=EDGE_CURVE('',#73,#115,#161,.T.);
#76=PRESENTATION_STYLE_ASSIGNMENT((#162));
#77=ADVANCED_FACE('',(#163),#164,.T.);
#78=PRESENTATION_STYLE_ASSIGNMENT((#165));
#79=VERTEX_POINT('',#166);
#80=PRESENTATION_STYLE_ASSIGNMENT((#167));
#81=EDGE_CURVE('',#71,#65,#168,.T.);
#82=PRESENTATION_STYLE_ASSIGNMENT((#169));
#83=ADVANCED_FACE('',(#170),#171,.F.);
#84=PRESENTATION_STYLE_ASSIGNMENT((#172));
#85=ADVANCED_FACE('',(#173,#174),#175,.T.);
#86=PRESENTATION_STYLE_ASSIGNMENT((#176));
#87=ADVANCED_FACE('',(#177),#178,.F.);
#88=PRESENTATION_STYLE_ASSIGNMENT((#179));
#89=ADVANCED_FACE('',(#180),#181,.T.);
#90=PRESENTATION_STYLE_ASSIGNMENT((#182));
#91=EDGE_CURVE('',#127,#111,#183,.T.);
#92=PRESENTATION_STYLE_ASSIGNMENT((#184));
#93=EDGE_CURVE('',#115,#73,#185,.T.);
#94=PRESENTATION_STYLE_ASSIGNMENT((#186));
#95=EDGE_CURVE('',#107,#79,#187,.T.);
#96=PRESENTATION_STYLE_ASSIGNMENT((#188));
#97=EDGE_CURVE('',#105,#69,#189,.T.);
#98=PRESENTATION_STYLE_ASSIGNMENT((#190));
#99=ADVANCED_FACE('',(#191,#192),#193,.T.);
#100=PRESENTATION_STYLE_ASSIGNMENT((#194));
#101=EDGE_CURVE('',#79,#111,#195,.T.);
#102=PRESENTATION_STYLE_ASSIGNMENT((#196));
#103=EDGE_CURVE('',#111,#127,#197,.T.);
#104=PRESENTATION_STYLE_ASSIGNMENT((#198));
#105=VERTEX_POINT('',#199);
#106=PRESENTATION_STYLE_ASSIGNMENT((#200));
#107=VERTEX_POINT('',#201);
#108=PRESENTATION_STYLE_ASSIGNMENT((#202));
#109=ADVANCED_FACE('',(#203),#204,.F.);
#110=PRESENTATION_STYLE_ASSIGNMENT((#205));
#111=VERTEX_POINT('',#206);
#112=PRESENTATION_STYLE_ASSIGNMENT((#207));
#113=MANIFOLD_SOLID_BREP('1',#208);
#114=PRESENTATION_STYLE_ASSIGNMENT((#209));
#115=VERTEX_POINT('',#210);
#116=PRESENTATION_STYLE_ASSIGNMENT((#211));
#117=EDGE_CURVE('',#65,#71,#212,.T.);
#118=PRESENTATION_STYLE_ASSIGNMENT((#213));
#119=ADVANCED_FACE('',(#214),#215,.F.);
#120=PRESENTATION_STYLE_ASSIGNMENT((#216));
#121=EDGE_CURVE('',#127,#107,#217,.T.);
#122=PRESENTATION_STYLE_ASSIGNMENT((#218));
#123=EDGE_CURVE('',#79,#107,#219,.T.);
#124=PRESENTATION_STYLE_ASSIGNMENT((#220));
#125=EDGE_CURVE('',#73,#71,#221,.T.);
#126=PRESENTATION_STYLE_ASSIGNMENT((#222));
#127=VERTEX_POINT('',#223);
#128=PRODUCT('1','1','PART-1-DESC',(#224));
#129=PRODUCT_DEFINITION('NONE','NONE',#225,#2);
#130=AXIS2_PLACEMENT_3D('',#226,#227,#228);
#133=LENGTH_MEASURE_WITH_UNIT(LENGTH_MEASURE(1.0),#229);
#136=DIMENSIONAL_EXPONENTS(1.0,0.0,0.0,0.0,0.0,0.0,0.0);
#138=DIMENSIONAL_EXPONENTS(0.0,0.0,0.0,0.0,0.0,0.0,0.0);
#144=CURVE_STYLE('',#230,POSITIVE_LENGTH_MEASURE(1.0E-006),#231);
#145=LINE('',#232,#233);
#146=CURVE_STYLE('',#234,POSITIVE_LENGTH_MEASURE(1.0E-006),#235);
#147=CIRCLE('',#236,24.5);
#148=CURVE_STYLE('',#237,POSITIVE_LENGTH_MEASURE(1.0E-006),#238);
#149=LINE('',#239,#240);
#150=POINT_STYLE(' ',#241,POSITIVE_LENGTH_MEASURE(1.0E-006),#242);
#151=CARTESIAN_POINT('',(-39.0,8.30090441478161E-015,18.0));
#152=CURVE_STYLE('',#243,POSITIVE_LENGTH_MEASURE(1.0E-006),#244);
#153=LINE('',#245,#246);
#154=POINT_STYLE(' ',#247,POSITIVE_LENGTH_MEASURE(1.0E-006),#248);
#155=CARTESIAN_POINT('',(-24.5,8.97443790938392E-015,-2.8421709430404E-014));
#156=POINT_STYLE(' ',#249,POSITIVE_LENGTH_MEASURE(1.0E-006),#250);
#157=CARTESIAN_POINT('',(39.0,2.43818036128276E-014,18.0));
#158=POINT_STYLE(' ',#251,POSITIVE_LENGTH_MEASURE(1.0E-006),#252);
#159=CARTESIAN_POINT('',(39.0,2.43818036128276E-014,-2.8421709430404E-014));
#160=CURVE_STYLE('',#253,POSITIVE_LENGTH_MEASURE(1.0E-006),#254);
#161=CIRCLE('',#255,39.0);
#162=SURFACE_STYLE_USAGE(.BOTH.,#256);
#163=FACE_OUTER_BOUND('',#257,.T.);
#164=CYLINDRICAL_SURFACE('',#258,39.0);
#165=POINT_STYLE(' ',#259,POSITIVE_LENGTH_MEASURE(1.0E-006),#260);
#166=CARTESIAN_POINT('',(24.5,2.01786869701863E-014,11.9378221735088));
#167=CURVE_STYLE('',#261,POSITIVE_LENGTH_MEASURE(1.0E-006),#262);
#168=CIRCLE('',#263,39.0);
#169=SURFACE_STYLE_USAGE(.BOTH.,#264);
#170=FACE_OUTER_BOUND('',#265,.T.);
#171=CYLINDRICAL_SURFACE('',#266,24.5);
#172=SURFACE_STYLE_USAGE(.BOTH.,#267);
#173=FACE_OUTER_BOUND('',#268,.T.);
#174=FACE_BOUND('',#269,.T.);
#175=PLANE('',#270);
#176=SURFACE_STYLE_USAGE(.BOTH.,#271);
#177=FACE_OUTER_BOUND('',#272,.T.);
#178=CONICAL_SURFACE('',#273,29.75,1.04719755119659);
#179=SURFACE_STYLE_USAGE(.BOTH.,#274);
#180=FACE_OUTER_BOUND('',#275,.T.);
#181=CYLINDRICAL_SURFACE('',#276,39.0);
#182=CURVE_STYLE('',#277,POSITIVE_LENGTH_MEASURE(1.0E-006),#278);
#183=CIRCLE('',#279,35.0);
#184=CURVE_STYLE('',#280,POSITIVE_LENGTH_MEASURE(1.0E-006),#281);
#185=CIRCLE('',#282,39.0);
#186=CURVE_STYLE('',#283,POSITIVE_LENGTH_MEASURE(1.0E-006),#284);
#187=CIRCLE('',#285,24.5);
#188=CURVE_STYLE('',#286,POSITIVE_LENGTH_MEASURE(1.0E-006),#287);
#189=CIRCLE('',#288,24.5);
#190=SURFACE_STYLE_USAGE(.BOTH.,#289);
#191=FACE_BOUND('',#290,.T.);
#192=FACE_OUTER_BOUND('',#291,.T.);
#193=PLANE('',#292);
#194=CURVE_STYLE('',#293,POSITIVE_LENGTH_MEASURE(1.0E-006),#294);
#195=LINE('',#295,#296);
#196=CURVE_STYLE('',#297,POSITIVE_LENGTH_MEASURE(1.0E-006),#298);
#197=CIRCLE('',#299,35.0);
#198=POINT_STYLE(' ',#300,POSITIVE_LENGTH_MEASURE(1.0E-006),#301);
#199=CARTESIAN_POINT('',(24.5,2.01786869701863E-014,-2.8421709430404E-014));
#200=POINT_STYLE(' ',#302,POSITIVE_LENGTH_MEASURE(1.0E-006),#303);
#201=CARTESIAN_POINT('',(-24.5,9.70539455360795E-015,11.9378221735088));
#202=SURFACE_STYLE_USAGE(.BOTH.,#304);
#203=FACE_OUTER_BOUND('',#305,.T.);
#204=CONICAL_SURFACE('',#306,29.75,1.04719755119659);
#205=POINT_STYLE(' ',#307,POSITIVE_LENGTH_MEASURE(1.0E-006),#308);
#206=CARTESIAN_POINT('',(35.0,2.32223231596852E-014,18.0));
#207=SURFACE_STYLE_USAGE(.BOTH.,#309);
#208=CLOSED_SHELL('',(#83,#77,#87,#109,#85,#89,#99,#119));
#209=POINT_STYLE(' ',#310,POSITIVE_LENGTH_MEASURE(1.0E-006),#311);
#210=CARTESIAN_POINT('',(-39.0,7.19875869634147E-015,-2.8421709430404E-014));
#211=CURVE_STYLE('',#312,POSITIVE_LENGTH_MEASURE(1.0E-006),#313);
#212=CIRCLE('',#314,39.0);
#213=SURFACE_STYLE_USAGE(.BOTH.,#315);
#214=FACE_OUTER_BOUND('',#316,.T.);
#215=CYLINDRICAL_SURFACE('',#317,24.5);
#216=CURVE_STYLE('',#318,POSITIVE_LENGTH_MEASURE(1.0E-006),#319);
#217=LINE('',#320,#321);
#218=CURVE_STYLE('',#322,POSITIVE_LENGTH_MEASURE(1.0E-006),#323);
#219=CIRCLE('',#324,24.5);
#220=CURVE_STYLE('',#325,POSITIVE_LENGTH_MEASURE(1.0E-006),#326);
#221=LINE('',#327,#328);
#222=POINT_STYLE(' ',#329,POSITIVE_LENGTH_MEASURE(1.0E-006),#330);
#223=CARTESIAN_POINT('',(-35.0,8.79074695631056E-015,18.0));
#224=PRODUCT_CONTEXT('',#45,'mechanical');
#225=PRODUCT_DEFINITION_FORMATION_WITH_SPECIFIED_SOURCE(' ','NONE',#128,.NOT_KNOWN.);
#226=CARTESIAN_POINT('',(0.0,0.0,0.0));
#227=DIRECTION('',(0.0,0.0,1.0));
#228=DIRECTION('',(1.0,0.0,0.0));
#229= (NAMED_UNIT(#136)LENGTH_UNIT()SI_UNIT(.MILLI.,.METRE.));
#230=DRAUGHTING_PRE_DEFINED_CURVE_FONT('continuous');
#231=COLOUR_RGB('',0.509803950786591,0.509803950786591,0.588235318660736);
#232=CARTESIAN_POINT('',(24.5,2.01786869701863E-014,5.96891108675439));
#233=VECTOR('',#332,1.0);
#234=DRAUGHTING_PRE_DEFINED_CURVE_FONT('continuous');
#235=COLOUR_RGB('',0.509803950786591,0.509803950786591,0.588235318660736);
#236=AXIS2_PLACEMENT_3D('',#333,#334,#335);
#237=DRAUGHTING_PRE_DEFINED_CURVE_FONT('continuous');
#238=COLOUR_RGB('',0.509803950786591,0.509803950786591,0.588235318660736);
#239=CARTESIAN_POINT('',(-24.5,5.97505141919149E-015,5.96891108675439));
#240=VECTOR('',#336,1.0);
#241=PRE_DEFINED_MARKER('');
#242=COLOUR_RGB('',0.509803950786591,0.509803950786591,0.588235318660736);
#243=DRAUGHTING_PRE_DEFINED_CURVE_FONT('continuous');
#244=COLOUR_RGB('',0.509803950786591,0.509803950786591,0.588235318660736);
#245=CARTESIAN_POINT('',(-39.0,1.77193477655018E-015,8.99999999999997));
#246=VECTOR('',#337,1.0);
#247=PRE_DEFINED_MARKER('');
#248=COLOUR_RGB('',0.509803950786591,0.509803950786591,0.588235318660736);
#249=PRE_DEFINED_MARKER('');
#250=COLOUR_RGB('',0.509803950786591,0.509803950786591,0.588235318660736);
#251=PRE_DEFINED_MARKER('');
#252=COLOUR_RGB('',0.509803950786591,0.509803950786591,0.588235318660736);
#253=DRAUGHTING_PRE_DEFINED_CURVE_FONT('continuous');
#254=COLOUR_RGB('',0.509803950786591,0.509803950786591,0.588235318660736);
#255=AXIS2_PLACEMENT_3D('',#338,#339,#340);
#256=SURFACE_SIDE_STYLE('',(#341));
#257=EDGE_LOOP('',(#342,#343,#344,#345));
#258=AXIS2_PLACEMENT_3D('',#346,#347,#348);
#259=PRE_DEFINED_MARKER('');
#260=COLOUR_RGB('',0.509803950786591,0.509803950786591,0.588235318660736);
#261=DRAUGHTING_PRE_DEFINED_CURVE_FONT('continuous');
#262=COLOUR_RGB('',0.509803950786591,0.509803950786591,0.588235318660736);
#263=AXIS2_PLACEMENT_3D('',#349,#350,#351);
#264=SURFACE_SIDE_STYLE('',(#352));
#265=EDGE_LOOP('',(#353,#354,#355,#356));
#266=AXIS2_PLACEMENT_3D('',#357,#358,#359);
#267=SURFACE_SIDE_STYLE('',(#360));
#268=EDGE_LOOP('',(#361,#362));
#269=EDGE_LOOP('',(#363,#364));
#270=AXIS2_PLACEMENT_3D('',#365,#366,#367);
#271=SURFACE_SIDE_STYLE('',(#368));
#272=EDGE_LOOP('',(#369,#370,#371,#372));
#273=AXIS2_PLACEMENT_3D('',#373,#374,#375);
#274=SURFACE_SIDE_STYLE('',(#376));
#275=EDGE_LOOP('',(#377,#378,#379,#380));
#276=AXIS2_PLACEMENT_3D('',#381,#382,#383);
#277=DRAUGHTING_PRE_DEFINED_CURVE_FONT('continuous');
#278=COLOUR_RGB('',0.509803950786591,0.509803950786591,0.588235318660736);
#279=AXIS2_PLACEMENT_3D('',#384,#385,#386);
#280=DRAUGHTING_PRE_DEFINED_CURVE_FONT('continuous');
#281=COLOUR_RGB('',0.509803950786591,0.509803950786591,0.588235318660736);
#282=AXIS2_PLACEMENT_3D('',#387,#388,#389);
#283=DRAUGHTING_PRE_DEFINED_CURVE_FONT('continuous');
#284=COLOUR_RGB('',0.509803950786591,0.509803950786591,0.588235318660736);
#285=AXIS2_PLACEMENT_3D('',#390,#391,#392);
#286=DRAUGHTING_PRE_DEFINED_CURVE_FONT('continuous');
#287=COLOUR_RGB('',0.509803950786591,0.509803950786591,0.588235318660736);
#288=AXIS2_PLACEMENT_3D('',#393,#394,#395);
#289=SURFACE_SIDE_STYLE('',(#396));
#290=EDGE_LOOP('',(#397,#398));
#291=EDGE_LOOP('',(#399,#400));
#292=AXIS2_PLACEMENT_3D('',#401,#402,#403);
#293=DRAUGHTING_PRE_DEFINED_CURVE_FONT('continuous');
#294=COLOUR_RGB('',0.509803950786591,0.509803950786591,0.588235318660736);
#295=CARTESIAN_POINT('',(29.75,2.17005050649357E-014,14.9689110867544));
#296=VECTOR('',#404,1.0);
#297=DRAUGHTING_PRE_DEFINED_CURVE_FONT('continuous');
#298=COLOUR_RGB('',0.509803950786591,0.509803950786591,0.588235318660736);
#299=AXIS2_PLACEMENT_3D('',#405,#406,#407);
#300=PRE_DEFINED_MARKER('');
#301=COLOUR_RGB('',0.509803950786591,0.509803950786591,0.588235318660736);
#302=PRE_DEFINED_MARKER('');
#303=COLOUR_RGB('',0.509803950786591,0.509803950786591,0.588235318660736);
#304=SURFACE_SIDE_STYLE('',(#408));
#305=EDGE_LOOP('',(#409,#410,#411,#412));
#306=AXIS2_PLACEMENT_3D('',#413,#414,#415);
#307=PRE_DEFINED_MARKER('');
#308=COLOUR_RGB('',0.509803950786591,0.509803950786591,0.588235318660736);
#309=SURFACE_SIDE_STYLE('',(#416));
#310=PRE_DEFINED_MARKER('');
#311=COLOUR_RGB('',0.509803950786591,0.509803950786591,0.588235318660736);
#312=DRAUGHTING_PRE_DEFINED_CURVE_FONT('continuous');
#313=COLOUR_RGB('',0.509803950786591,0.509803950786591,0.588235318660736);
#314=AXIS2_PLACEMENT_3D('',#417,#418,#419);
#315=SURFACE_SIDE_STYLE('',(#420));
#316=EDGE_LOOP('',(#421,#422,#423,#424));
#317=AXIS2_PLACEMENT_3D('',#425,#426,#427);
#318=DRAUGHTING_PRE_DEFINED_CURVE_FONT('continuous');
#319=COLOUR_RGB('',0.509803950786591,0.509803950786591,0.588235318660736);
#320=CARTESIAN_POINT('',(-29.75,4.45323332444205E-015,14.9689110867544));
#321=VECTOR('',#428,1.0);
#322=DRAUGHTING_PRE_DEFINED_CURVE_FONT('continuous');
#323=COLOUR_RGB('',0.509803950786591,0.509803950786591,0.588235318660736);
#324=AXIS2_PLACEMENT_3D('',#429,#430,#431);
#325=DRAUGHTING_PRE_DEFINED_CURVE_FONT('continuous');
#326=COLOUR_RGB('',0.509803950786591,0.509803950786591,0.588235318660736);
#327=CARTESIAN_POINT('',(39.0,2.43818036128276E-014,8.99999999999997));
#328=VECTOR('',#432,1.0);
#329=PRE_DEFINED_MARKER('');
#330=COLOUR_RGB('',0.509803950786591,0.509803950786591,0.588235318660736);
#332=DIRECTION('',(0.0,0.0,1.0));
#333=CARTESIAN_POINT('',(0.0,1.30768691946889E-014,-2.8421709430404E-014));
#334=DIRECTION('',(-0.0,0.0,-1.0));
#335=DIRECTION('',(-1.0,-1.6740947790337E-016,0.0));
#336=DIRECTION('',(0.0,0.0,-1.0));
#337=DIRECTION('',(0.0,0.0,-1.0));
#338=CARTESIAN_POINT('',(0.0,1.30768691946889E-014,-2.8421709430404E-014));
#339=DIRECTION('',(-0.0,0.0,-1.0));
#340=DIRECTION('',(-1.0,-1.6740947790337E-016,0.0));
#341=SURFACE_STYLE_FILL_AREA(#433);
#342=ORIENTED_EDGE('',*,*,#67,.F.);
#343=ORIENTED_EDGE('',*,*,#117,.T.);
#344=ORIENTED_EDGE('',*,*,#125,.F.);
#345=ORIENTED_EDGE('',*,*,#93,.F.);
#346=CARTESIAN_POINT('',(0.0,1.30768691946889E-014,8.99999999999997));
#347=DIRECTION('',(0.0,-0.0,1.0));
#348=DIRECTION('',(-1.0,-1.6740947790337E-016,0.0));
#349=CARTESIAN_POINT('',(0.0,1.30768691946889E-014,18.0));
#350=DIRECTION('',(-0.0,0.0,-1.0));
#351=DIRECTION('',(-1.0,-1.6740947790337E-016,0.0));
#352=SURFACE_STYLE_FILL_AREA(#434);
#353=ORIENTED_EDGE('',*,*,#63,.F.);
#354=ORIENTED_EDGE('',*,*,#123,.F.);
#355=ORIENTED_EDGE('',*,*,#59,.F.);
#356=ORIENTED_EDGE('',*,*,#97,.T.);
#357=CARTESIAN_POINT('',(0.0,1.30768691946889E-014,5.96891108675439));
#358=DIRECTION('',(0.0,-0.0,1.0));
#359=DIRECTION('',(-1.0,-1.6740947790337E-016,0.0));
#360=SURFACE_STYLE_FILL_AREA(#435);
#361=ORIENTED_EDGE('',*,*,#117,.F.);
#362=ORIENTED_EDGE('',*,*,#81,.F.);
#363=ORIENTED_EDGE('',*,*,#91,.T.);
#364=ORIENTED_EDGE('',*,*,#103,.T.);
#365=CARTESIAN_POINT('',(-37.0,8.54582568554609E-015,18.0));
#366=DIRECTION('',(0.0,0.0,1.0));
#367=DIRECTION('',(-1.0,-1.22460635382238E-016,0.0));
#368=SURFACE_STYLE_FILL_AREA(#436);
#369=ORIENTED_EDGE('',*,*,#121,.F.);
#370=ORIENTED_EDGE('',*,*,#103,.F.);
#371=ORIENTED_EDGE('',*,*,#101,.F.);
#372=ORIENTED_EDGE('',*,*,#123,.T.);
#373=CARTESIAN_POINT('',(0.0,1.30768691946889E-014,14.9689110867544));
#374=DIRECTION('',(0.0,-0.0,1.0));
#375=DIRECTION('',(-1.0,-1.6740947790337E-016,0.0));
#376=SURFACE_STYLE_FILL_AREA(#437);
#377=ORIENTED_EDGE('',*,*,#67,.T.);
#378=ORIENTED_EDGE('',*,*,#75,.F.);
#379=ORIENTED_EDGE('',*,*,#125,.T.);
#380=ORIENTED_EDGE('',*,*,#81,.T.);
#381=CARTESIAN_POINT('',(0.0,1.30768691946889E-014,8.99999999999997));
#382=DIRECTION('',(0.0,-0.0,1.0));
#383=DIRECTION('',(-1.0,-1.6740947790337E-016,0.0));
#384=CARTESIAN_POINT('',(0.0,1.30768691946889E-014,18.0));
#385=DIRECTION('',(-0.0,0.0,-1.0));
#386=DIRECTION('',(-1.0,-1.6740947790337E-016,0.0));
#387=CARTESIAN_POINT('',(0.0,1.30768691946889E-014,-2.8421709430404E-014));
#388=DIRECTION('',(-0.0,0.0,-1.0));
#389=DIRECTION('',(-1.0,-1.6740947790337E-016,0.0));
#390=CARTESIAN_POINT('',(0.0,1.30768691946889E-014,11.9378221735088));
#391=DIRECTION('',(-0.0,0.0,-1.0));
#392=DIRECTION('',(-1.0,-1.6740947790337E-016,0.0));
#393=CARTESIAN_POINT('',(0.0,1.30768691946889E-014,-2.8421709430404E-014));
#394=DIRECTION('',(-0.0,0.0,-1.0));
#395=DIRECTION('',(-1.0,-1.6740947790337E-016,0.0));
#396=SURFACE_STYLE_FILL_AREA(#438);
#397=ORIENTED_EDGE('',*,*,#61,.F.);
#398=ORIENTED_EDGE('',*,*,#97,.F.);
#399=ORIENTED_EDGE('',*,*,#93,.T.);
#400=ORIENTED_EDGE('',*,*,#75,.T.);
#401=CARTESIAN_POINT('',(-31.75,8.0865983028627E-015,-2.8421709430404E-014));
#402=DIRECTION('',(0.0,0.0,-1.0));
#403=DIRECTION('',(1.0,1.22460635382238E-016,0.0));
#404=DIRECTION('',(0.866025403784435,2.51034881903208E-016,0.500000000000006));
#405=CARTESIAN_POINT('',(0.0,1.30768691946889E-014,18.0));
#406=DIRECTION('',(-0.0,0.0,-1.0));
#407=DIRECTION('',(-1.0,-1.6740947790337E-016,0.0));
#408=SURFACE_STYLE_FILL_AREA(#439);
#409=ORIENTED_EDGE('',*,*,#121,.T.);
#410=ORIENTED_EDGE('',*,*,#95,.T.);
#411=ORIENTED_EDGE('',*,*,#101,.T.);
#412=ORIENTED_EDGE('',*,*,#91,.F.);
#413=CARTESIAN_POINT('',(0.0,1.30768691946889E-014,14.9689110867544));
#414=DIRECTION('',(0.0,-0.0,1.0));
#415=DIRECTION('',(-1.0,-1.6740947790337E-016,0.0));
#416=SURFACE_STYLE_FILL_AREA(#440);
#417=CARTESIAN_POINT('',(0.0,1.30768691946889E-014,18.0));
#418=DIRECTION('',(-0.0,0.0,-1.0));
#419=DIRECTION('',(-1.0,-1.6740947790337E-016,0.0));
#420=SURFACE_STYLE_FILL_AREA(#441);
#421=ORIENTED_EDGE('',*,*,#63,.T.);
#422=ORIENTED_EDGE('',*,*,#61,.T.);
#423=ORIENTED_EDGE('',*,*,#59,.T.);
#424=ORIENTED_EDGE('',*,*,#95,.F.);
#425=CARTESIAN_POINT('',(0.0,1.30768691946889E-014,5.96891108675439));
#426=DIRECTION('',(0.0,-0.0,1.0));
#427=DIRECTION('',(-1.0,-1.6740947790337E-016,0.0));
#428=DIRECTION('',(0.866025403784435,2.51034881903208E-016,-0.500000000000006));
#429=CARTESIAN_POINT('',(0.0,1.30768691946889E-014,11.9378221735088));
#430=DIRECTION('',(-0.0,0.0,-1.0));
#431=DIRECTION('',(-1.0,-1.6740947790337E-016,0.0));
#432=DIRECTION('',(-0.0,-0.0,1.0));
#433=FILL_AREA_STYLE('',(#442));
#434=FILL_AREA_STYLE('',(#443));
#435=FILL_AREA_STYLE('',(#444));
#436=FILL_AREA_STYLE('',(#445));
#437=FILL_AREA_STYLE('',(#446));
#438=FILL_AREA_STYLE('',(#447));
#439=FILL_AREA_STYLE('',(#448));
#440=FILL_AREA_STYLE('',(#449));
#441=FILL_AREA_STYLE('',(#450));
#442=FILL_AREA_STYLE_COLOUR('',#451);
#443=FILL_AREA_STYLE_COLOUR('',#452);
#444=FILL_AREA_STYLE_COLOUR('',#453);
#445=FILL_AREA_STYLE_COLOUR('',#454);
#446=FILL_AREA_STYLE_COLOUR('',#455);
#447=FILL_AREA_STYLE_COLOUR('',#456);
#448=FILL_AREA_STYLE_COLOUR('',#457);
#449=FILL_AREA_STYLE_COLOUR('',#458);
#450=FILL_AREA_STYLE_COLOUR('',#459);
#451=COLOUR_RGB('',0.509803950786591,0.509803950786591,0.588235318660736);
#452=COLOUR_RGB('',0.509803950786591,0.509803950786591,0.588235318660736);
#453=COLOUR_RGB('',0.509803950786591,0.509803950786591,0.588235318660736);
#454=COLOUR_RGB('',0.509803950786591,0.509803950786591,0.588235318660736);
#455=COLOUR_RGB('',0.509803950786591,0.509803950786591,0.588235318660736);
#456=COLOUR_RGB('',0.509803950786591,0.509803950786591,0.588235318660736);
#457=COLOUR_RGB('',0.509803950786591,0.509803950786591,0.588235318660736);
#458=COLOUR_RGB('',0.509803950786591,0.509803950786591,0.588235318660736);
#459=COLOUR_RGB('',0.509803950786591,0.509803950786591,0.588235318660736);
ENDSEC;
END-ISO-10303-21;
