ISO-10303-21;
HEADER;
FILE_DESCRIPTION(('STEP AP214'),'1');
FILE_NAME(' ','  ',('TraceParts'),('TraceParts S.A.'),'XStep 1.0',' ',' ');
FILE_SCHEMA(('automotive_design'));
ENDSEC;
DATA;
#1=MECHANICAL_DESIGN_GEOMETRIC_PRESENTATION_REPRESENTATION(' ',(#10,#11,#12,#13,#14,#15,#16,#17,#18,#19,#20,#21,#22,#23,#24,#25,#26,#27,#28,#29,#30,#31,#32,#33,#34,#35,#36,#37,#38,#39,#40,#41,#42,#43,#44,#45),#6);
#2=PRODUCT_DEFINITION_CONTEXT('',#46,'design');
#3=APPLICATION_PROTOCOL_DEFINITION('INTERNATIONAL STANDARD','automotive_design',1994,#46);
#4=PRODUCT_CATEGORY_RELATIONSHIP('NONE','NONE',#47,#48);
#5=SHAPE_DEFINITION_REPRESENTATION(#49,#50);
#6= (GEOMETRIC_REPRESENTATION_CONTEXT(3)GLOBAL_UNCERTAINTY_ASSIGNED_CONTEXT((#53))GLOBAL_UNIT_ASSIGNED_CONTEXT((#55,#56,#57))REPRESENTATION_CONTEXT('NONE','WORKSPACE'));
#10=STYLED_ITEM('',(#59),#60);
#11=STYLED_ITEM('',(#61),#62);
#12=STYLED_ITEM('',(#63),#64);
#13=STYLED_ITEM('',(#65),#66);
#14=STYLED_ITEM('',(#67),#68);
#15=STYLED_ITEM('',(#69),#70);
#16=STYLED_ITEM('',(#71),#72);
#17=STYLED_ITEM('',(#73),#74);
#18=STYLED_ITEM('',(#75),#76);
#19=STYLED_ITEM('',(#77),#78);
#20=STYLED_ITEM('',(#79),#80);
#21=STYLED_ITEM('',(#81),#82);
#22=STYLED_ITEM('',(#83),#84);
#23=STYLED_ITEM('',(#85),#86);
#24=STYLED_ITEM('',(#87),#88);
#25=STYLED_ITEM('',(#89),#90);
#26=STYLED_ITEM('',(#91),#92);
#27=STYLED_ITEM('',(#93),#94);
#28=STYLED_ITEM('',(#95),#96);
#29=STYLED_ITEM('',(#97),#98);
#30=STYLED_ITEM('',(#99),#100);
#31=STYLED_ITEM('',(#101),#102);
#32=STYLED_ITEM('',(#103),#104);
#33=STYLED_ITEM('',(#105),#106);
#34=STYLED_ITEM('',(#107),#108);
#35=STYLED_ITEM('',(#109),#110);
#36=STYLED_ITEM('',(#111),#112);
#37=STYLED_ITEM('',(#113),#114);
#38=STYLED_ITEM('',(#115),#116);
#39=STYLED_ITEM('',(#117),#118);
#40=STYLED_ITEM('',(#119),#120);
#41=STYLED_ITEM('',(#121),#122);
#42=STYLED_ITEM('',(#123),#124);
#43=STYLED_ITEM('',(#125),#126);
#44=STYLED_ITEM('',(#127),#128);
#45=STYLED_ITEM('',(#129),#130);
#46=APPLICATION_CONTEXT(' ');
#47=PRODUCT_CATEGORY('part','NONE');
#48=PRODUCT_RELATED_PRODUCT_CATEGORY('detail',' ',(#131));
#49=PRODUCT_DEFINITION_SHAPE('NONE','NONE',#132);
#50=ADVANCED_BREP_SHAPE_REPRESENTATION('1',(#92,#133),#6);
#53=UNCERTAINTY_MEASURE_WITH_UNIT(LENGTH_MEASURE(1.0E-006),#55,'','');
#55= (CONVERSION_BASED_UNIT('MILLIMETRE',#136)LENGTH_UNIT()NAMED_UNIT(#139));
#56= (NAMED_UNIT(#141)PLANE_ANGLE_UNIT()SI_UNIT($,.RADIAN.));
#57= (NAMED_UNIT(#141)SOLID_ANGLE_UNIT()SI_UNIT($,.STERADIAN.));
#59=PRESENTATION_STYLE_ASSIGNMENT((#147));
#60=EDGE_CURVE('',#86,#66,#148,.T.);
#61=PRESENTATION_STYLE_ASSIGNMENT((#149));
#62=ADVANCED_FACE('',(#150),#151,.F.);
#63=PRESENTATION_STYLE_ASSIGNMENT((#152));
#64=EDGE_CURVE('',#82,#90,#153,.T.);
#65=PRESENTATION_STYLE_ASSIGNMENT((#154));
#66=VERTEX_POINT('',#155);
#67=PRESENTATION_STYLE_ASSIGNMENT((#156));
#68=EDGE_CURVE('',#82,#98,#157,.T.);
#69=PRESENTATION_STYLE_ASSIGNMENT((#158));
#70=ADVANCED_FACE('',(#159),#160,.F.);
#71=PRESENTATION_STYLE_ASSIGNMENT((#161));
#72=EDGE_CURVE('',#86,#90,#162,.T.);
#73=PRESENTATION_STYLE_ASSIGNMENT((#163));
#74=ADVANCED_FACE('',(#164),#165,.F.);
#75=PRESENTATION_STYLE_ASSIGNMENT((#166));
#76=EDGE_CURVE('',#100,#124,#167,.T.);
#77=PRESENTATION_STYLE_ASSIGNMENT((#168));
#78=EDGE_CURVE('',#90,#82,#169,.T.);
#79=PRESENTATION_STYLE_ASSIGNMENT((#170));
#80=ADVANCED_FACE('',(#171,#172),#173,.T.);
#81=PRESENTATION_STYLE_ASSIGNMENT((#174));
#82=VERTEX_POINT('',#175);
#83=PRESENTATION_STYLE_ASSIGNMENT((#176));
#84=ADVANCED_FACE('',(#177),#178,.F.);
#85=PRESENTATION_STYLE_ASSIGNMENT((#179));
#86=VERTEX_POINT('',#180);
#87=PRESENTATION_STYLE_ASSIGNMENT((#181));
#88=EDGE_CURVE('',#124,#100,#182,.T.);
#89=PRESENTATION_STYLE_ASSIGNMENT((#183));
#90=VERTEX_POINT('',#184);
#91=PRESENTATION_STYLE_ASSIGNMENT((#185));
#92=MANIFOLD_SOLID_BREP('1',#186);
#93=PRESENTATION_STYLE_ASSIGNMENT((#187));
#94=EDGE_CURVE('',#100,#130,#188,.T.);
#95=PRESENTATION_STYLE_ASSIGNMENT((#189));
#96=EDGE_CURVE('',#114,#90,#190,.T.);
#97=PRESENTATION_STYLE_ASSIGNMENT((#191));
#98=VERTEX_POINT('',#192);
#99=PRESENTATION_STYLE_ASSIGNMENT((#193));
#100=VERTEX_POINT('',#194);
#101=PRESENTATION_STYLE_ASSIGNMENT((#195));
#102=EDGE_CURVE('',#110,#114,#196,.T.);
#103=PRESENTATION_STYLE_ASSIGNMENT((#197));
#104=ADVANCED_FACE('',(#198),#199,.T.);
#105=PRESENTATION_STYLE_ASSIGNMENT((#200));
#106=EDGE_CURVE('',#98,#110,#201,.T.);
#107=PRESENTATION_STYLE_ASSIGNMENT((#202));
#108=EDGE_CURVE('',#98,#114,#203,.T.);
#109=PRESENTATION_STYLE_ASSIGNMENT((#204));
#110=VERTEX_POINT('',#205);
#111=PRESENTATION_STYLE_ASSIGNMENT((#206));
#112=EDGE_CURVE('',#130,#124,#207,.T.);
#113=PRESENTATION_STYLE_ASSIGNMENT((#208));
#114=VERTEX_POINT('',#209);
#115=PRESENTATION_STYLE_ASSIGNMENT((#210));
#116=ADVANCED_FACE('',(#211),#212,.F.);
#117=PRESENTATION_STYLE_ASSIGNMENT((#213));
#118=EDGE_CURVE('',#66,#86,#214,.T.);
#119=PRESENTATION_STYLE_ASSIGNMENT((#215));
#120=ADVANCED_FACE('',(#216),#217,.F.);
#121=PRESENTATION_STYLE_ASSIGNMENT((#218));
#122=EDGE_CURVE('',#114,#98,#219,.T.);
#123=PRESENTATION_STYLE_ASSIGNMENT((#220));
#124=VERTEX_POINT('',#221);
#125=PRESENTATION_STYLE_ASSIGNMENT((#222));
#126=EDGE_CURVE('',#82,#66,#223,.T.);
#127=PRESENTATION_STYLE_ASSIGNMENT((#224));
#128=ADVANCED_FACE('',(#225),#226,.T.);
#129=PRESENTATION_STYLE_ASSIGNMENT((#227));
#130=VERTEX_POINT('',#228);
#131=PRODUCT('1','1','PART-1-DESC',(#229));
#132=PRODUCT_DEFINITION('NONE','NONE',#230,#2);
#133=AXIS2_PLACEMENT_3D('',#231,#232,#233);
#136=LENGTH_MEASURE_WITH_UNIT(LENGTH_MEASURE(1.0),#234);
#139=DIMENSIONAL_EXPONENTS(1.0,0.0,0.0,0.0,0.0,0.0,0.0);
#141=DIMENSIONAL_EXPONENTS(0.0,0.0,0.0,0.0,0.0,0.0,0.0);
#147=CURVE_STYLE('',#235,POSITIVE_LENGTH_MEASURE(1.0E-006),#236);
#148=CIRCLE('',#237,2.49999999999997);
#149=SURFACE_STYLE_USAGE(.BOTH.,#238);
#150=FACE_OUTER_BOUND('',#239,.T.);
#151=CONICAL_SURFACE('',#240,2.45,0.00833314044013544);
#152=CURVE_STYLE('',#241,POSITIVE_LENGTH_MEASURE(1.0E-006),#242);
#153=CIRCLE('',#243,2.40000000000001);
#154=POINT_STYLE(' ',#244,POSITIVE_LENGTH_MEASURE(1.0E-006),#245);
#155=CARTESIAN_POINT('',(-2.50000000000003,-2.0682375248257E-013,-2.8421709430404E-014));
#156=CURVE_STYLE('',#246,POSITIVE_LENGTH_MEASURE(1.0E-006),#247);
#157=LINE('',#248,#249);
#158=SURFACE_STYLE_USAGE(.BOTH.,#250);
#159=FACE_OUTER_BOUND('',#251,.T.);
#160=CYLINDRICAL_SURFACE('',#252,2.40000000000001);
#161=CURVE_STYLE('',#253,POSITIVE_LENGTH_MEASURE(1.0E-006),#254);
#162=LINE('',#255,#256);
#163=SURFACE_STYLE_USAGE(.BOTH.,#257);
#164=FACE_OUTER_BOUND('',#258,.T.);
#165=CONICAL_SURFACE('',#259,2.45,0.00833314044013544);
#166=CURVE_STYLE('',#260,POSITIVE_LENGTH_MEASURE(1.0E-006),#261);
#167=CIRCLE('',#262,5.99999999999999);
#168=CURVE_STYLE('',#263,POSITIVE_LENGTH_MEASURE(1.0E-006),#264);
#169=CIRCLE('',#265,2.40000000000001);
#170=SURFACE_STYLE_USAGE(.BOTH.,#266);
#171=FACE_BOUND('',#267,.T.);
#172=FACE_OUTER_BOUND('',#268,.T.);
#173=PLANE('',#269);
#174=POINT_STYLE(' ',#270,POSITIVE_LENGTH_MEASURE(1.0E-006),#271);
#175=CARTESIAN_POINT('',(-2.40000000000006,-1.9771482044217E-013,12.0));
#176=SURFACE_STYLE_USAGE(.BOTH.,#272);
#177=FACE_OUTER_BOUND('',#273,.T.);
#178=CONICAL_SURFACE('',#274,1.2,1.04719755119658);
#179=POINT_STYLE(' ',#275,POSITIVE_LENGTH_MEASURE(1.0E-006),#276);
#180=CARTESIAN_POINT('',(2.49999999999991,2.2199389718159E-014,-2.8421709430404E-014));
#181=CURVE_STYLE('',#277,POSITIVE_LENGTH_MEASURE(1.0E-006),#278);
#182=CIRCLE('',#279,5.99999999999999);
#183=POINT_STYLE(' ',#280,POSITIVE_LENGTH_MEASURE(1.0E-006),#281);
#184=CARTESIAN_POINT('',(2.39999999999998,2.11680826975366E-014,12.0));
#185=SURFACE_STYLE_USAGE(.BOTH.,#282);
#186=CLOSED_SHELL('',(#120,#116,#104,#74,#62,#128,#80,#70,#84));
#187=CURVE_STYLE('',#283,POSITIVE_LENGTH_MEASURE(1.0E-006),#284);
#188=CIRCLE('',#285,10.0);
#189=CURVE_STYLE('',#286,POSITIVE_LENGTH_MEASURE(1.0E-006),#287);
#190=LINE('',#288,#289);
#191=POINT_STYLE(' ',#290,POSITIVE_LENGTH_MEASURE(1.0E-006),#291);
#192=CARTESIAN_POINT('',(-2.40000000000006,2.08031127072301E-014,15.0));
#193=POINT_STYLE(' ',#292,POSITIVE_LENGTH_MEASURE(1.0E-006),#293);
#194=CARTESIAN_POINT('',(5.99999999999994,2.2199389718159E-014,-1.4210854715202E-014));
#195=CURVE_STYLE('',#294,POSITIVE_LENGTH_MEASURE(1.0E-006),#295);
#196=LINE('',#296,#297);
#197=SURFACE_STYLE_USAGE(.BOTH.,#298);
#198=FACE_OUTER_BOUND('',#299,.T.);
#199=SPHERICAL_SURFACE('',#300,10.0);
#200=CURVE_STYLE('',#301,POSITIVE_LENGTH_MEASURE(1.0E-006),#302);
#201=LINE('',#303,#304);
#202=CURVE_STYLE('',#305,POSITIVE_LENGTH_MEASURE(1.0E-006),#306);
#203=CIRCLE('',#307,2.40000000000001);
#204=POINT_STYLE(' ',#308,POSITIVE_LENGTH_MEASURE(1.0E-006),#309);
#205=CARTESIAN_POINT('',(-5.6843418860808E-014,2.11960917358286E-014,16.3856406460552));
#206=CURVE_STYLE('',#310,POSITIVE_LENGTH_MEASURE(1.0E-006),#311);
#207=CIRCLE('',#312,10.0);
#208=POINT_STYLE(' ',#313,POSITIVE_LENGTH_MEASURE(1.0E-006),#314);
#209=CARTESIAN_POINT('',(2.39999999999995,2.12809349527922E-014,15.0));
#210=SURFACE_STYLE_USAGE(.BOTH.,#315);
#211=FACE_OUTER_BOUND('',#316,.T.);
#212=CYLINDRICAL_SURFACE('',#317,2.40000000000001);
#213=CURVE_STYLE('',#318,POSITIVE_LENGTH_MEASURE(1.0E-006),#319);
#214=CIRCLE('',#320,2.49999999999997);
#215=SURFACE_STYLE_USAGE(.BOTH.,#321);
#216=FACE_OUTER_BOUND('',#322,.T.);
#217=CONICAL_SURFACE('',#323,1.2,1.04719755119658);
#218=CURVE_STYLE('',#324,POSITIVE_LENGTH_MEASURE(1.0E-006),#325);
#219=CIRCLE('',#326,2.40000000000001);
#220=POINT_STYLE(' ',#327,POSITIVE_LENGTH_MEASURE(1.0E-006),#328);
#221=CARTESIAN_POINT('',(-6.00000000000005,2.09747833643367E-014,-1.4210854715202E-014));
#222=CURVE_STYLE('',#329,POSITIVE_LENGTH_MEASURE(1.0E-006),#330);
#223=LINE('',#331,#332);
#224=SURFACE_STYLE_USAGE(.BOTH.,#333);
#225=FACE_OUTER_BOUND('',#334,.T.);
#226=SPHERICAL_SURFACE('',#335,10.0);
#227=POINT_STYLE(' ',#336,POSITIVE_LENGTH_MEASURE(1.0E-006),#337);
#228=CARTESIAN_POINT('',(-5.6843418860808E-014,2.10972439997189E-014,18.0));
#229=PRODUCT_CONTEXT('',#46,'mechanical');
#230=PRODUCT_DEFINITION_FORMATION_WITH_SPECIFIED_SOURCE(' ','NONE',#131,.NOT_KNOWN.);
#231=CARTESIAN_POINT('',(0.0,0.0,0.0));
#232=DIRECTION('',(0.0,0.0,1.0));
#233=DIRECTION('',(1.0,0.0,0.0));
#234= (NAMED_UNIT(#139)LENGTH_UNIT()SI_UNIT(.MILLI.,.METRE.));
#235=DRAUGHTING_PRE_DEFINED_CURVE_FONT('continuous');
#236=COLOUR_RGB('',0.509803950786591,0.509803950786591,0.588235318660736);
#237=AXIS2_PLACEMENT_3D('',#339,#340,#341);
#238=SURFACE_SIDE_STYLE('',(#342));
#239=EDGE_LOOP('',(#343,#344,#345,#346));
#240=AXIS2_PLACEMENT_3D('',#347,#348,#349);
#241=DRAUGHTING_PRE_DEFINED_CURVE_FONT('continuous');
#242=COLOUR_RGB('',0.509803950786591,0.509803950786591,0.588235318660736);
#243=AXIS2_PLACEMENT_3D('',#350,#351,#352);
#244=PRE_DEFINED_MARKER('');
#245=COLOUR_RGB('',0.509803950786591,0.509803950786591,0.588235318660736);
#246=DRAUGHTING_PRE_DEFINED_CURVE_FONT('continuous');
#247=COLOUR_RGB('',0.509803950786591,0.509803950786591,0.588235318660736);
#248=CARTESIAN_POINT('',(-2.40000000000006,2.08031127072301E-014,13.5));
#249=VECTOR('',#353,1.0);
#250=SURFACE_SIDE_STYLE('',(#354));
#251=EDGE_LOOP('',(#355,#356,#357,#358));
#252=AXIS2_PLACEMENT_3D('',#359,#360,#361);
#253=DRAUGHTING_PRE_DEFINED_CURVE_FONT('continuous');
#254=COLOUR_RGB('',0.509803950786591,0.509803950786591,0.588235318660736);
#255=CARTESIAN_POINT('',(2.44999999999997,2.44068383517368E-013,5.99999999999997));
#256=VECTOR('',#362,1.0);
#257=SURFACE_SIDE_STYLE('',(#363));
#258=EDGE_LOOP('',(#364,#365,#366,#367));
#259=AXIS2_PLACEMENT_3D('',#368,#369,#370);
#260=DRAUGHTING_PRE_DEFINED_CURVE_FONT('continuous');
#261=COLOUR_RGB('',0.509803950786591,0.509803950786591,0.588235318660736);
#262=AXIS2_PLACEMENT_3D('',#371,#372,#373);
#263=DRAUGHTING_PRE_DEFINED_CURVE_FONT('continuous');
#264=COLOUR_RGB('',0.509803950786591,0.509803950786591,0.588235318660736);
#265=AXIS2_PLACEMENT_3D('',#374,#375,#376);
#266=SURFACE_SIDE_STYLE('',(#377));
#267=EDGE_LOOP('',(#378,#379));
#268=EDGE_LOOP('',(#380,#381));
#269=AXIS2_PLACEMENT_3D('',#382,#383,#384);
#270=PRE_DEFINED_MARKER('');
#271=COLOUR_RGB('',0.509803950786591,0.509803950786591,0.588235318660736);
#272=SURFACE_SIDE_STYLE('',(#385));
#273=EDGE_LOOP('',(#386,#387,#388));
#274=AXIS2_PLACEMENT_3D('',#389,#390,#391);
#275=PRE_DEFINED_MARKER('');
#276=COLOUR_RGB('',0.509803950786591,0.509803950786591,0.588235318660736);
#277=DRAUGHTING_PRE_DEFINED_CURVE_FONT('continuous');
#278=COLOUR_RGB('',0.509803950786591,0.509803950786591,0.588235318660736);
#279=AXIS2_PLACEMENT_3D('',#392,#393,#394);
#280=PRE_DEFINED_MARKER('');
#281=COLOUR_RGB('',0.509803950786591,0.509803950786591,0.588235318660736);
#282=SURFACE_SIDE_STYLE('',(#395));
#283=DRAUGHTING_PRE_DEFINED_CURVE_FONT('continuous');
#284=COLOUR_RGB('',0.509803950786591,0.509803950786591,0.588235318660736);
#285=AXIS2_PLACEMENT_3D('',#396,#397,#398);
#286=DRAUGHTING_PRE_DEFINED_CURVE_FONT('continuous');
#287=COLOUR_RGB('',0.509803950786591,0.509803950786591,0.588235318660736);
#288=CARTESIAN_POINT('',(2.39999999999995,2.13913752922077E-014,13.5));
#289=VECTOR('',#399,1.0);
#290=PRE_DEFINED_MARKER('');
#291=COLOUR_RGB('',0.509803950786591,0.509803950786591,0.588235318660736);
#292=PRE_DEFINED_MARKER('');
#293=COLOUR_RGB('',0.509803950786591,0.509803950786591,0.588235318660736);
#294=DRAUGHTING_PRE_DEFINED_CURVE_FONT('continuous');
#295=COLOUR_RGB('',0.509803950786591,0.509803950786591,0.588235318660736);
#296=CARTESIAN_POINT('',(1.19999999999995,2.12443096459633E-014,15.6928203230276));
#297=VECTOR('',#400,1.0);
#298=SURFACE_SIDE_STYLE('',(#401));
#299=EDGE_LOOP('',(#402,#403,#404));
#300=AXIS2_PLACEMENT_3D('',#405,#406,#407);
#301=DRAUGHTING_PRE_DEFINED_CURVE_FONT('continuous');
#302=COLOUR_RGB('',0.509803950786591,0.509803950786591,0.588235318660736);
#303=CARTESIAN_POINT('',(-1.20000000000006,2.09501783534745E-014,15.6928203230276));
#304=VECTOR('',#408,1.0);
#305=DRAUGHTING_PRE_DEFINED_CURVE_FONT('continuous');
#306=COLOUR_RGB('',0.509803950786591,0.509803950786591,0.588235318660736);
#307=AXIS2_PLACEMENT_3D('',#409,#410,#411);
#308=PRE_DEFINED_MARKER('');
#309=COLOUR_RGB('',0.509803950786591,0.509803950786591,0.588235318660736);
#310=DRAUGHTING_PRE_DEFINED_CURVE_FONT('continuous');
#311=COLOUR_RGB('',0.509803950786591,0.509803950786591,0.588235318660736);
#312=AXIS2_PLACEMENT_3D('',#412,#413,#414);
#313=PRE_DEFINED_MARKER('');
#314=COLOUR_RGB('',0.509803950786591,0.509803950786591,0.588235318660736);
#315=SURFACE_SIDE_STYLE('',(#415));
#316=EDGE_LOOP('',(#416,#417,#418,#419));
#317=AXIS2_PLACEMENT_3D('',#420,#421,#422);
#318=DRAUGHTING_PRE_DEFINED_CURVE_FONT('continuous');
#319=COLOUR_RGB('',0.509803950786591,0.509803950786591,0.588235318660736);
#320=AXIS2_PLACEMENT_3D('',#423,#424,#425);
#321=SURFACE_SIDE_STYLE('',(#426));
#322=EDGE_LOOP('',(#427,#428,#429));
#323=AXIS2_PLACEMENT_3D('',#430,#431,#432);
#324=DRAUGHTING_PRE_DEFINED_CURVE_FONT('continuous');
#325=COLOUR_RGB('',0.509803950786591,0.509803950786591,0.588235318660736);
#326=AXIS2_PLACEMENT_3D('',#433,#434,#435);
#327=PRE_DEFINED_MARKER('');
#328=COLOUR_RGB('',0.509803950786591,0.509803950786591,0.588235318660736);
#329=DRAUGHTING_PRE_DEFINED_CURVE_FONT('continuous');
#330=COLOUR_RGB('',0.509803950786591,0.509803950786591,0.588235318660736);
#331=CARTESIAN_POINT('',(-2.45000000000003,-2.02269286462369E-013,5.99999999999997));
#332=VECTOR('',#436,1.0);
#333=SURFACE_SIDE_STYLE('',(#437));
#334=EDGE_LOOP('',(#438,#439,#440));
#335=AXIS2_PLACEMENT_3D('',#441,#442,#443);
#336=PRE_DEFINED_MARKER('');
#337=COLOUR_RGB('',0.509803950786591,0.509803950786591,0.588235318660736);
#339=CARTESIAN_POINT('',(-5.6843418860808E-014,2.10972439997189E-014,-2.8421709430404E-014));
#340=DIRECTION('',(0.0,0.0,-1.0));
#341=DIRECTION('',(1.0,9.40698214412202E-020,0.0));
#342=SURFACE_STYLE_FILL_AREA(#444);
#343=ORIENTED_EDGE('',*,*,#72,.T.);
#344=ORIENTED_EDGE('',*,*,#64,.F.);
#345=ORIENTED_EDGE('',*,*,#126,.T.);
#346=ORIENTED_EDGE('',*,*,#118,.T.);
#347=CARTESIAN_POINT('',(-2.8421709430404E-014,2.08995485274996E-014,5.99999999999997));
#348=DIRECTION('',(0.0,-0.0,-1.0));
#349=DIRECTION('',(1.0,9.09668597686456E-014,0.0));
#350=CARTESIAN_POINT('',(-5.6843418860808E-014,2.10972439997189E-014,12.0));
#351=DIRECTION('',(0.0,0.0,-1.0));
#352=DIRECTION('',(1.0,9.40698214412202E-020,0.0));
#353=DIRECTION('',(-0.0,-0.0,1.0));
#354=SURFACE_STYLE_FILL_AREA(#445);
#355=ORIENTED_EDGE('',*,*,#96,.T.);
#356=ORIENTED_EDGE('',*,*,#78,.T.);
#357=ORIENTED_EDGE('',*,*,#68,.T.);
#358=ORIENTED_EDGE('',*,*,#122,.F.);
#359=CARTESIAN_POINT('',(-5.6843418860808E-014,2.10972439997189E-014,7.54999999999995));
#360=DIRECTION('',(-0.0,-0.0,1.0));
#361=DIRECTION('',(1.0,9.40698214412202E-020,0.0));
#362=DIRECTION('',(-0.00833304399655055,-7.59051314542653E-016,0.999965279586122));
#363=SURFACE_STYLE_FILL_AREA(#446);
#364=ORIENTED_EDGE('',*,*,#72,.F.);
#365=ORIENTED_EDGE('',*,*,#60,.T.);
#366=ORIENTED_EDGE('',*,*,#126,.F.);
#367=ORIENTED_EDGE('',*,*,#78,.F.);
#368=CARTESIAN_POINT('',(-2.8421709430404E-014,2.08995485274996E-014,5.99999999999997));
#369=DIRECTION('',(0.0,-0.0,-1.0));
#370=DIRECTION('',(1.0,9.09668597686456E-014,0.0));
#371=CARTESIAN_POINT('',(-5.6843418860808E-014,2.10972439997189E-014,-1.4210854715202E-014));
#372=DIRECTION('',(0.0,0.0,-1.0));
#373=DIRECTION('',(1.0,9.40698214412202E-020,0.0));
#374=CARTESIAN_POINT('',(-5.6843418860808E-014,2.10972439997189E-014,12.0));
#375=DIRECTION('',(0.0,0.0,-1.0));
#376=DIRECTION('',(1.0,9.40698214412202E-020,0.0));
#377=SURFACE_STYLE_FILL_AREA(#447);
#378=ORIENTED_EDGE('',*,*,#60,.F.);
#379=ORIENTED_EDGE('',*,*,#118,.F.);
#380=ORIENTED_EDGE('',*,*,#76,.T.);
#381=ORIENTED_EDGE('',*,*,#88,.T.);
#382=CARTESIAN_POINT('',(4.24999999999993,2.2199389718159E-014,-2.1316282072803E-014));
#383=DIRECTION('',(0.0,0.0,-1.0));
#384=DIRECTION('',(-1.0,0.0,0.0));
#385=SURFACE_STYLE_FILL_AREA(#448);
#386=ORIENTED_EDGE('',*,*,#106,.F.);
#387=ORIENTED_EDGE('',*,*,#108,.T.);
#388=ORIENTED_EDGE('',*,*,#102,.F.);
#389=CARTESIAN_POINT('',(-5.6843418860808E-014,2.10972439997189E-014,15.6928203230276));
#390=DIRECTION('',(0.0,-0.0,-1.0));
#391=DIRECTION('',(1.0,9.40698214412202E-020,0.0));
#392=CARTESIAN_POINT('',(-5.6843418860808E-014,2.10972439997189E-014,-1.4210854715202E-014));
#393=DIRECTION('',(0.0,0.0,-1.0));
#394=DIRECTION('',(1.0,9.40698214412202E-020,0.0));
#395=SURFACE_STYLE_FILL_AREA(#449);
#396=CARTESIAN_POINT('',(-6.19835355575036E-014,2.17095471766301E-014,7.99999999999998));
#397=DIRECTION('',(1.22460635382238E-016,-1.0,0.0));
#398=DIRECTION('',(0.0,0.0,1.0));
#399=DIRECTION('',(-0.0,-0.0,-1.0));
#400=DIRECTION('',(0.866025403784429,1.06135488059697E-016,-0.500000000000017));
#401=SURFACE_STYLE_FILL_AREA(#450);
#402=ORIENTED_EDGE('',*,*,#112,.F.);
#403=ORIENTED_EDGE('',*,*,#94,.F.);
#404=ORIENTED_EDGE('',*,*,#88,.F.);
#405=CARTESIAN_POINT('',(-6.19835355575036E-014,2.17095471766301E-014,7.99999999999998));
#406=DIRECTION('',(0.0,0.0,-1.0));
#407=DIRECTION('',(-1.0,0.0,0.0));
#408=DIRECTION('',(0.866025403784429,1.06135488059697E-016,0.500000000000017));
#409=CARTESIAN_POINT('',(-5.6843418860808E-014,2.10972439997189E-014,15.0));
#410=DIRECTION('',(0.0,0.0,-1.0));
#411=DIRECTION('',(1.0,9.40698214412202E-020,0.0));
#412=CARTESIAN_POINT('',(-6.19835355575036E-014,2.17095471766301E-014,7.99999999999998));
#413=DIRECTION('',(1.22460635382238E-016,-1.0,0.0));
#414=DIRECTION('',(0.0,0.0,1.0));
#415=SURFACE_STYLE_FILL_AREA(#451);
#416=ORIENTED_EDGE('',*,*,#96,.F.);
#417=ORIENTED_EDGE('',*,*,#108,.F.);
#418=ORIENTED_EDGE('',*,*,#68,.F.);
#419=ORIENTED_EDGE('',*,*,#64,.T.);
#420=CARTESIAN_POINT('',(-5.6843418860808E-014,2.10972439997189E-014,7.54999999999995));
#421=DIRECTION('',(-0.0,-0.0,1.0));
#422=DIRECTION('',(1.0,9.40698214412202E-020,0.0));
#423=CARTESIAN_POINT('',(-5.6843418860808E-014,2.10972439997189E-014,-2.8421709430404E-014));
#424=DIRECTION('',(0.0,0.0,-1.0));
#425=DIRECTION('',(1.0,9.40698214412202E-020,0.0));
#426=SURFACE_STYLE_FILL_AREA(#452);
#427=ORIENTED_EDGE('',*,*,#106,.T.);
#428=ORIENTED_EDGE('',*,*,#102,.T.);
#429=ORIENTED_EDGE('',*,*,#122,.T.);
#430=CARTESIAN_POINT('',(-5.6843418860808E-014,2.10972439997189E-014,15.6928203230276));
#431=DIRECTION('',(0.0,-0.0,-1.0));
#432=DIRECTION('',(1.0,9.40698214412202E-020,0.0));
#433=CARTESIAN_POINT('',(-5.6843418860808E-014,2.10972439997189E-014,15.0));
#434=DIRECTION('',(0.0,0.0,-1.0));
#435=DIRECTION('',(1.0,9.40698214412202E-020,0.0));
#436=DIRECTION('',(-0.00833304399655055,-7.59051314542653E-016,-0.999965279586122));
#437=SURFACE_STYLE_FILL_AREA(#453);
#438=ORIENTED_EDGE('',*,*,#112,.T.);
#439=ORIENTED_EDGE('',*,*,#76,.F.);
#440=ORIENTED_EDGE('',*,*,#94,.T.);
#441=CARTESIAN_POINT('',(-6.19835355575036E-014,2.17095471766301E-014,7.99999999999998));
#442=DIRECTION('',(0.0,0.0,-1.0));
#443=DIRECTION('',(-1.0,0.0,0.0));
#444=FILL_AREA_STYLE('',(#454));
#445=FILL_AREA_STYLE('',(#455));
#446=FILL_AREA_STYLE('',(#456));
#447=FILL_AREA_STYLE('',(#457));
#448=FILL_AREA_STYLE('',(#458));
#449=FILL_AREA_STYLE('',(#459));
#450=FILL_AREA_STYLE('',(#460));
#451=FILL_AREA_STYLE('',(#461));
#452=FILL_AREA_STYLE('',(#462));
#453=FILL_AREA_STYLE('',(#463));
#454=FILL_AREA_STYLE_COLOUR('',#464);
#455=FILL_AREA_STYLE_COLOUR('',#465);
#456=FILL_AREA_STYLE_COLOUR('',#466);
#457=FILL_AREA_STYLE_COLOUR('',#467);
#458=FILL_AREA_STYLE_COLOUR('',#468);
#459=FILL_AREA_STYLE_COLOUR('',#469);
#460=FILL_AREA_STYLE_COLOUR('',#470);
#461=FILL_AREA_STYLE_COLOUR('',#471);
#462=FILL_AREA_STYLE_COLOUR('',#472);
#463=FILL_AREA_STYLE_COLOUR('',#473);
#464=COLOUR_RGB('',0.509803950786591,0.509803950786591,0.588235318660736);
#465=COLOUR_RGB('',0.509803950786591,0.509803950786591,0.588235318660736);
#466=COLOUR_RGB('',0.509803950786591,0.509803950786591,0.588235318660736);
#467=COLOUR_RGB('',0.509803950786591,0.509803950786591,0.588235318660736);
#468=COLOUR_RGB('',0.509803950786591,0.509803950786591,0.588235318660736);
#469=COLOUR_RGB('',0.509803950786591,0.509803950786591,0.588235318660736);
#470=COLOUR_RGB('',0.509803950786591,0.509803950786591,0.588235318660736);
#471=COLOUR_RGB('',0.509803950786591,0.509803950786591,0.588235318660736);
#472=COLOUR_RGB('',0.509803950786591,0.509803950786591,0.588235318660736);
#473=COLOUR_RGB('',0.509803950786591,0.509803950786591,0.588235318660736);
ENDSEC;
END-ISO-10303-21;
